Oops, an error
Loading. Please wait.

Soily Bass Tab

16 views 3 this week
no commentswrite comment
1 2 3 4 5
3 more votes to show rating
add to favorites
launch autoscroll
font size
0
reset
guitar tuner
Autoscroll
slow
fast
+/-
esc
set tempo
stop
Help us to improve Ultimate-Guitar.com Take our survey!
×
Author
Difficulty
intermediate
From Wings Over America (1976)

Intro :
G|---------------------------------|---------------------------------|
D|---------------------------------|---------------------------------|
A|---------------------------------|----------------------------7----|
E|---------------------------------|---------------------------------|

1:22
G|---------------------------------|---------------------------------|
D|---------------------------------|---------------------------------|
A|----7-------5---7---7-------5----|7---7-------5---7---7-------5----|
E|--------7---------------7--------|--------7---------------7--------|

G|---------------------------------|---------------------------------|
D|---------------------------------|---------------------------------|
A|7---7-------5---7---7-------5----|7---7-------5---7---7-------5----|
E|--------7---------------7--------|--------7---------------7--------|

G|---------------------------------|---------------------------------|
D|---------------------------------|---------------------------------|
A|7---7-------5---7---7-------5----|7---7-------5---7---7-------5----|
E|--------7---------------7--------|--------7---------------7--------|

G|---------------------------------|---------------------------------|
D|---------------------------------|---------------------------------|
A|7---7-------5---7---7-------5----|7---7---5------------------------|
E|--------7---------------7--------|------------7---6---5---3---4----|

Verse 1 :
G|---------------------------------|---------------------------------|
D|---------------------------------|---------------------------------|
A|7---7-------5---7---7-------5----|7---7-------5---7---7-------5----|
E|--------7---------------7--------|--------7---------------7--------|

G|---------------------------------|---------------------------------|
D|---------------------------------|---------------------------------|
A|7---7-------5---7---7-------5----|7---------------------------7----|
E|--------7---------------7--------|---------------------------------|

G|---------------------------------|---------------------------------|
D|---------------------------------|---------------------------------|
A|----7-------5---7---7-------5----|7---7-------5---7---7-------5----|
E|--------7---------------7--------|--------7---------------7--------|

G|---------------------------------|---------------------------------|
D|---------------------------------|---------------------------------|
A|7---7-------5---7---7-------5----|7---7-------5---7---7-------5----|
E|--------7---------------7--------|--------7---------------7--------|

G|---------------------------------|---------------------------------|
D|---------------------------------|---------------------------------|
A|7---7-------5---7---7-------5----|7---7-------5---7---7-------5----|
E|--------7---------------7--------|--------7---------------7--------|

G|---------------------------------|---------------------------------|
D|---------------------------------|---------------------------------|
A|7---7-------5---7---7-------5----|7---7-------5---7---7-------5----|
E|--------7---------------7--------|--------7---------------7--------|

G|---------------------------------|---------------------------------|
D|---------------------------------|---------------------------------|
A|7---7-------5---7---7-------5----|7---7-------5---7---7-------5----|
E|--------7---------------7--------|--------7---------------7--------|

G|---------------------------------|---------------------------------|
D|---------------------------------|---------------------------------|
A|7--------------------------------|---------------------------------|
E|---------------------------------|---------------------------------|

Chorus :
G|---------------------------------|---------------------------------|
D|---------------------------------|--------5------------------------|
A|--------------------5---7---5----|----------------7---5---4---2----|
E|3-------3-------7----------------|---------------------------------|

G|---------------------------------|---------------------------------|
D|---------------------------------|---------------------------------|
A|3-------3-------3---3---3---3----|7---7---7---7---7---7---7---7----|
E|---------------------------------|---------------------------------|

G|---------------------------------|---------------------------------|
D|---------------------------------|--------5------------------------|
A|--------------------5---7---5----|----------------7---5---4---2----|
E|3-------3-------7----------------|---------------------------------|

G|---------------------------------|---------------------------------|
D|---------------------------------|---------------------------------|
A|3-------3-------3---3---3---3----|7---7---7---7---7---7---7---7----|
E|---------------------------------|---------------------------------|

Interlude :
G|---------------------------------|---------------------------------|
D|---------------------------------|---------------------------------|
A|----7-------5---7---7-------5----|7---7-------5---7---7-------5----|
E|--------7---------------7--------|--------7---------------7--------|

G|---------------------------------|---------------------------------|
D|---------------------------------|---------------------------------|
A|7---7-------5---7---7-------5----|7---7---5------------------------|
E|--------7---------------7--------|------------7---6---5---3---4----|

G|---------------------------------|---------------------------------|
D|---------------------------------|---------------------------------|
A|7---7-------5---7---7-------5----|7---7-------5---7---7-------5----|
E|--------7---------------7--------|--------7---------------7--------|

G|---------------------------------|---------------------------------|
D|---------------------------------|---------------------------------|
A|7---7-------5---7---7-------5----|7---7-------5---7---7-------5----|
E|--------7---------------7--------|--------7---------------7--------|

G|---------------------------------|---------------------------------|
D|---------------------------------|---------------------------------|
A|7---7-------5---7---7-------5----|7---7-------5---7---7-------5----|
E|--------7---------------7--------|--------7---------------7--------|

G|---------------------------------|---------------------------------|
D|---------------------------------|---------------------------------|
A|7---7-------5---7---7-------5----|7---7-------5---7---7-------5----|
E|--------7---------------7--------|--------7---------------7--------|

Verse 2 :
G|---------------------------------|---------------------------------|
D|---------------------------------|---------------------------------|
A|7---7-------5---7---7-------5----|7---7-------5---7---7-------5----|
E|--------7---------------7--------|--------7---------------7--------|

G|---------------------------------|---------------------------------|
D|---------------------------------|---------------------------------|
A|7---7-------5---7---7-------5----|7---------------------------7----|
E|--------7---------------7--------|---------------------------------|

G|---------------------------------|---------------------------------|
D|---------------------------------|---------------------------------|
A|----7-------5---7---7-------5----|7---7-------5---7---7-------5----|
E|--------7---------------7--------|--------7---------------7--------|

G|---------------------------------|---------------------------------|
D|---------------------------------|---------------------------------|
A|7---7-------5---7---7-------5----|7---7-------5---7---7-------5----|
E|--------7---------------7--------|--------7---------------7--------|

G|---------------------------------|---------------------------------|
D|---------------------------------|---------------------------------|
A|7---7-------5---7---7-------5----|7---7-------5---7---7-------5----|
E|--------7---------------7--------|--------7---------------7--------|

G|---------------------------------|---------------------------------|
D|---------------------------------|---------------------------------|
A|7---7-------5---7---7-------5----|7---7-------5---7---7-------5----|
E|--------7---------------7--------|--------7---------------7--------|

G|---------------------------------|---------------------------------|
D|---------------------------------|---------------------------------|
A|7---7-------5---7---7-------5----|7---7-------5---7---7-------5----|
E|--------7---------------7--------|--------7---------------7--------|

G|---------------------------------|---------------------------------|
D|---------------------------------|---------------------------------|
A|7--------------------------------|---------------------------------|
E|---------------------------------|---------------------------------|

Chorus :
G|---------------------------------|---------------------------------|
D|---------------------------------|--------5------------------------|
A|--------------------5---7---5----|----------------7---5---4---2----|
E|3-------3-------7----------------|---------------------------------|

G|---------------------------------|---------------------------------|
D|---------------------------------|---------------------------------|
A|3-------3-------3---3---3---3----|---------------------------------|
E|---------------------------------|0---0---1---1---2---2---3---3----|

G|---------------------------------|---------------------------------|
D|---------------------------------|--------5------------------------|
A|--------------------5---7---5----|----------------7---5---4---2----|
E|3-------3-------7----------------|---------------------------------|

G|---------------------------------|---------------------------------|
D|---------------------------------|---------------------------------|
A|3-------3-------3---3---3---3----|7---7---7---7---7---7---7---7----|
E|---------------------------------|---------------------------------|

Interlude : 
G|---------------------------------|---------------------------------|
D|---------------------------------|---------------------------------|
A|7-------7---7---7---7-------5----|7---7-------5---7---7-------5----|
E|------------------------7--------|--------7---------------7--------|

G|---------------------------------|---------------------------------|
D|---------------------------------|---------------------------------|
A|7---7-------5---7---7-------5----|7---7---5------------------------|
E|--------7---------------7--------|------------7---6---5---3---4----|

G|---------------------------------|---------------------------------|
D|---------------------------------|---------------------------------|
A|7---7-------5---7---7-------5----|7---7-------5---7---7-------5----|
E|--------7---------------7--------|--------7---------------7--------|

G|---------------------------------|---------------------------------|
D|---------------------------------|---------------------------------|
A|7---7-------5---7---7-------5----|7---7-------5---7---7-------5----|
E|--------7---------------7--------|--------7---------------7--------|

G|---------------------------------|---------------------------------|
D|---------------------------------|---------------------------------|
A|7---7-------5---7---7-------5----|7---7-------5---7---7-------5----|
E|--------7---------------7--------|--------7---------------7--------|

G|---------------------------------|---------------------------------|
D|---------------------------------|---------------------------------|
A|7---7-------5---7---7-------5----|7---7-------5---7---7-------5----|
E|--------7---------------7--------|--------7---------------7--------|

Verse 3 :
G|---------------------------------|---------------------------------|
D|---------------------------------|---------------------------------|
A|7---7-------5---7---7-------5----|7---7-------5---7---7-------5----|
E|--------7---------------7--------|--------7---------------7--------|

G|---------------------------------|---------------------------------|
D|---------------------------------|---------------------------------|
A|7---7-------5---7---7-------5----|7---------------------------7----|
E|--------7---------------7--------|---------------------------------|

G|---------------------------------|---------------------------------|
D|---------------------------------|---------------------------------|
A|----7-------5---7---7-------5----|7---7-------5---7---7-------5----|
E|--------7---------------7--------|--------7---------------7--------|

G|---------------------------------|---------------------------------|
D|---------------------------------|---------------------------------|
A|7---7-------5---7---7-------5----|7---7-------5---7---7-------5----|
E|--------7---------------7--------|--------7---------------7--------|

G|---------------------------------|---------------------------------|
D|---------------------------------|---------------------------------|
A|7---7-------5---7---7-------5----|7---7-------5---7---7-------5----|
E|--------7---------------7--------|--------7---------------7--------|

G|---------------------------------|---------------------------------|
D|---------------------------------|---------------------------------|
A|7---7-------5---7---7-------5----|7---7-------5---7---7-------5----|
E|--------7---------------7--------|--------7---------------7--------|

G|---------------------------------|---------------------------------|
D|---------------------------------|---------------------------------|
A|7---7-------5---7---7-------5----|7---7-------5---7---7-------5----|
E|--------7---------------7--------|--------7---------------7--------|

G|---------------------------------|---------------------------------|
D|---------------------------------|---------------------------------|
A|7--------------------------------|---------------------------------|
E|---------------------------------|---------------------------------|

Chorus :
G|---------------------------------|---------------------------------|
D|---------------------------------|--------5------------------------|
A|--------------------5-/-7---5----|----------------7---5---4---2----|
E|3-------3-------7----------------|---------------------------------|

G|---------------------------------|---------------------------------|
D|---------------------------------|---------------------------------|
A|3-------3-------3---3---3---3----|7---7---7---7---7---7---7---7----|
E|---------------------------------|---------------------------------|

G|---------------------------------|---------------------------------|
D|---------------------------------|--------5------------------------|
A|--------------------5---7---5----|----------------7---5---4---2----|
E|3-------3-------7----------------|---------------------------------|

G|---------------------------------|---------------------------------|
D|---------------------------------|---------------------------------|
A|3-------3-------3---3---3---3----|7---7---7---7---7---7---7---7----|
E|---------------------------------|---------------------------------|

G|---------------------------------|---------------------------------|
D|---------------------------------|--------5------------------------|
A|--------------------5---7---5----|----------------7---5---4---2----|
E|3-------3-------7----------------|---------------------------------|

G|---------------------------------|---------------------------------|
D|---------------------------------|---------------------------------|
A|3-------3-------3---3---3---3----|7---7---7---7---7---7---7---7----|
E|---------------------------------|---------------------------------|

G|---------------------------------|---------------------------------|
D|---------------------------------|--------5------------------------|
A|--------------------5---7---5----|----------------7---5---4---2----|
E|3-------3-------7----------------|---------------------------------|

G|---------------------------------|---------------------------------|
D|---------------------------------|---------------------------------|
A|3-------3-------3---3---3---3----|7---7---7---7---7---7---7---7----|
E|---------------------------------|---------------------------------|

G|---------------------------------|---------------------------------|
D|---------------------------------|---------------------------------|
A|--------------------5---7---5----|---------------------------------|
E|3-------3-------7----------------|---------------------------------|

G|---------------------------------|---------------------------------|
D|---------------------------------|---------------------------------|
A|---------------------------------|---------------------------------|
E|3--------------------------------|---------------------------------|

Outro :
G|---------------------------------|---------------------------------|
D|5-------3------------------------|---------------------------------|
A|----------------5----------------|5-------3---0--------------------|
E|------------------------3--------|---------------------------------|

G|---------------------------------|---------------------------------|
D|---------------------------------|---------------------------------|
A|3-------1------------------------|---------------------------------|
E|----------------3-------1---0----|---------------------------------|
Suggest correction
Give kudos to tab author, rate the tab!
1 2 3 4 5
comments
print report bad tab
guest
You may want to rate the tab now too:
select rating
Wanna post a correction for this tab? Suggest correction