Oops, an error
Loading. Please wait.

Spirits Of Ancient Egypt bass

202 views 1 this week
no commentswrite comment
1 2 3 4 5
3 more votes to show rating
add to favorites
×
Save as Personal and add changes to this tab that will be seen only by you. Learn more ›
×
You can save this tab as Personal to edit and correct it or add notes. All changes will be seen only by you. Learn more »
launch autoscroll
font size
0
reset
guitar tuner
edit
Autoscroll
slow
fast
+/-
esc
set tempo
stop
  This bass tab is from the Wings Over America version which is absolutely 
  more exciting to play than the bass part on the Venus and Mars album.




     INTRO

  G|-------------------------------|-------------------------------|
  D|-------------------------------|-------------------------------|
  A|-------------------------------|-------------------------------|
  E|7-/-0-----------------------7-/|0---------------------------7-/|


  G|-----------11\12---------------|----------------------- -------|
  D|-------------------------------|---5----------\-19-------------|
  A|-------------------------------|5h7----------------------------|
  E|0------------------------------|----------------------------7-/|


     Verse (You're my baby...)


  G|-------------------------------|-------------------------------|
  D|-------------------------------|-------------------------------|
  A|-------------------------------|-------------------------------|
  E|0---------------------------7-/|0---------------------------7-/|


  G|-------------------------------|-------------------------------|
  D|-------------------------------|----------------------------6\9|
  A|-------------------------------|-------------------------------|
  E|0---------------------------02/|5------------------------------|

    (When you're finished...)

  G|----------------7-9--------97--|-------------------------------|
  D|------------7h9--------------97|-------------------------------|
  A|7-----------------------------/|7--------75--------------------|
  E|-------------------------------|-----------75-3\5--------------|


  G|-------------------------------|-------------------------------|
  D|------------0-2-------------0-2|------------0-2-------------0-2|
  A|--------2-2-------------2-2----|--------2-2-------------2-2----|
  E|0-0-3-4---------0-0-3-4--------|0-0-3-4---------0-0-3-4--------|


  G|-------------------------------|-------------------------------|
  D|------------0-2-------------0-2|------------0-2-------------0-2|
  A|--------2-2-------------2-2----|--------2-2-------------2-2----|
  E|0-0-3-4---------0-0-3-4--------|0-0-3-4---------0-0-3-4--------|


  G|-------------------------------|------------0-2----------------|
  D|------------0-2-------------0-2|--------2-2-------------2-2-4--|
  A|--------2-2-------------2-2----|0-0-3-4---------0-0-3-4--------|
  E|0-0-3-4---------0-0-3-4--------|-------------------------------|


  G|----------------7-9-------97---|-------------------------------|
  D|2-----------4\9-------------97-|-------------------------------|
  A|------------------------------5|7--------75--------------------|
  E|-------------------------------|-----------75-3\5----------17/0|


  G|-------------------------------|----------------------- -------|
  D|------------0-2-------------0-2|------------0-2----------------|
  A|--------2-2-------------2-2----|--------2-2-------------2-2-4--|
  E|0-0-3-4---------0-0-3-4--------|0-0-3-4---------0-0-3-4--------|


     Chorus (Spirits of Ancient Egypt...)


  G|-------------------------------|-------------------------------|
  D|----------------2--------------|-------------------------------|
  A|3------------------------------|2-----------\-2-3--------------|
  E|-------------------------------|--0-0---0---23-----------------|

  G|-------------------------------|-------------------------------|
  D|2------------------------------|-------------------------------|
  A|------2------------------------|3---------------2-3------------|
  E|--------0-------0-0-0---0---2/3|-------------------------------|


  G|-------------------------------|-------------------------------|
  D|-------------------------------|-------------------------------|
  A|2-3-3---2-3-2-3\5-------/-0----|5-------/-0-----5-------/-0----|
  E|-------------------------------|-------------------------------|
                                      
                                        Verse (You're my baby...)

  G|-------------------------------|-------------------------------|
  D|-------------------------------|------------0-2-------------0-2|
  A|5\7-----------------7-5--------|--------2-2-------------2-2----|
  E|--------------------------5-3--|0-0-3-4---------0-0-3-4--------|


  G|-------------------------------|-------------------------------|
  D|------------0-2-------------0-2|------------0-2-------------0-2|
  A|--------2-2-------------2-2----|--------2-2-------------2-2----|
  E|0-0-3-4---------0-0-3-4--------|0-0-3-4---------0-0-3-4--------|


  G|------------0-2----------------|----------------7-9---------12/|
  D|--------2-2-------------2-2h4--|2-2---------4\9----------------|
  A|0-0-3-4---------0-0-3-4--------|-------------------------------|
  E|-------------------------------|-------------------------------|


  G|9-7-9----97--------------------|-------------------------------|
  D|-----------975-7--------4\9-6\9|------------0-2-------------0-2|
  A|--------------7----------------|--------2-2-------------2-2----|
  E|-------------------------------|0-0-3-4---------0-0-3-4--------|

                                      Chorus (Spirits of Ancient Egypt...)

  G|-------------------------------|-------------------------------|
  D|------------0-2----------------|----------------2--------------|
  A|--------2-2-------------2-2-4--|3------------------------------|
  E|0-0-3-4---------0-0-3-4--------|-------------------------------|


  G|-------------------------------|-------------------------------|
  D|-------------------------------|----------------2--------------|
  A|2---------------3--------------|3---------------------2--------|
  E|--0-0---0---2\3----------------|------------------------0------|


  G|-------------------------------|-------------------------------|
  D|-------------------------------|-------------------------------|
  A|------------\-2-3--------------|2-3-3---2-3-2-3\5-------/-0----|
  E|0-0-0---0---23-----------------|-------------------------------|


  G|-------------------------------|-------------------------------|
  D|-------------------------------|-------------------------------|
  A|5-------/-0-----5-------/-0----|2-------------------7-5--------|
  E|-------------------------------|--------------------------5-3--|

     Guitar and Drum Solo

  G|-------------------------------|-------------------------------|
  D|-------------------------------|-------------------------------|
  A|----7-5-------------7-5--------|----7-5-------------7-5--------|
  E|0---------5-3---0---------5-3--|0---------5-3---0---------5-3--|


  G|-------------------------------|-------------------------------|
  D|-------------------------------|-------------------------------|
  A|----7-5-------------7-5--------|----7-5-------------7-5--------|
  E|0---------5-3---0---------5-3--|0---------5-3---0---------5-3--|


  G|-------------------------------|-------------------------------|
  D|-------------------------------|-------------------------------|
  A|----7-5-------------7-5--------|----7-5-------------7-5--------|
  E|0---------5-3---0---------5-3--|0---------5-3---0---------5-3--|


  G|-------------------------------|-------------------------------|
  D|-------------------------------|-------------------------------|
  A|----7-5-------------7-5--------|----7-5-------------7-5--------|
  E|0---------5-3---0---------5-3--|0---------5-3---0---------5-3--|


  G|-------------------------------|-------------------------------|
  D|-------------------------------|-------------------------------|
  A|-------------------------------|-------------------------------|
  E|0-2----------------------------|0-2----------------------------|


  G|-------------------------------|-------------------------------|
  D|-------------------------------|-------------------------------|
  A|-------------------------------|-------------------------------|
  E|0-2---------------------------0|----2--------------------------|


  G|-------------------------------|-------------------------------|
  D|-------------------------------|-------------------------------|
  A|-------------------------------|-------------------------------|
  E|0-2----------------------------|0-3----------------------------|

 
  G|-------------------------------|-------------------------------|
  D|-------------------------------|-------------------------------|
  A|-------------------------------|-------------------------------|
  E|0-3----------------------------|0-3----------------------------|


  G|-------------------------------|-------------------------------|
  D|-------------------------------|-------------------------------|
  A|-------------------------------|-------------------------------|
  E|0-3----------------------------|1-5----------------------------|


  G|-------------------------------|-------------------------------|
  D|-------------------------------|--------------------2----------|
  A|------------------------2------|3------------------------------|
  E|3-5-------------5--------------|-------------------------------|


  G|-------------------------------|-------------------------------|
  D|-------------------------------|-------------------------------|
  A|-------------------------------|-------------------------------|
  E|------------0------------------|-------------------------------|

            
            
Suggest correction
Creating personal tab
Creating personal tab
You can edit any tab online and save it as your Personal.

You can edit, replace or remove any tab part or add personal notes – all changes will be seen only by you.

Personal tabs can be accessed anytime from any device, even offline.
Learn more »
Give kudos to tab author, rate the tab!
1 2 3 4 5
comments
print report bad tab
guest
You may want to rate the tab now too:
select rating
Wanna post a correction for this tab? Suggest correction