Oops, an error
Loading. Please wait.

Sweetest Little Show Bass Tab

13 views 1 this week
no commentswrite comment
1 2 3 4 5
3 more votes to show rating
add to favorites
launch autoscroll
font size
0
reset
guitar tuner
Autoscroll
slow
fast
+/-
esc
set tempo
stop
Help us to improve Ultimate-Guitar.com Take our survey!
×
Author
Difficulty
Intro : 00:11
G|---------------------------------|---------------------------------|
D|---------------------------------|7-----7-9-----9-10-----\---------|
A|0-----0-2-----2-3---/---7--------|---------------------------------|
E|---------------------------------|---------------------------------|

G|---------------------------------|
D|---------------------------------|
A|0-----0-2-----2-3-----3-5--------|
E|---------------------------------|

Verse 1 :
G|---------------------------------|---------------------------------|
D|---------------------------------|5--------------------------------|
A|--------2-----2-5-----5-2--------|------------5---3----------------|
E|3-----3--------------------------|---------------------------------|

G|---------------------------------|---------------------------------|
D|5-----5--------------------------|5--------------------------------|
A|--------5-----5------------------|------------5---3------------5-/-|
E|----------------3----------------|---------------------------------|

G|---------------------------------|---------------------------------|
D|---------------------------------|5--------------------------------|
A|7-----7-7--\----0----------------|--------5-------3-------5--------|
E|---------------------------------|---------------------------------|

G|---------------------------------|---------------------------------|
D|5-----2--------------------------|---------------------------------|
A|--------2-----2------------------|0-------2-------3-------4-5------|
E|----------------3-----3-0--------|---------------------------------|

G|---------------------------------|
D|---------------------------------|
A|--------2-----2-5-----5----------|
E|3-----3-----------------2--------|

Chorus :
G|---------------------------------|---------------------------------|
D|---------------------------------|7-----7-9-----9-10---\-----------|
A|0-------2-------3---/---7--------|---------------------------------|
E|---------------------------------|---------------------------------|

G|---------------------------------|---------------------------------|
D|---------------------------------|---------------------------------|
A|0-----0-2-----2-3-------5--------|----------------2-------2-5----5-|
E|---------------------------------|3-------------3------------------|

Verse 2 :
G|---------------------------------|---------------------------------|
D|---------------------------------|--------7---5-------7---7---5----|
A|--------6---5-------7---5--------|0-------------7-0----------------|
E|0-----0---------0--0-------------|---------------------------------|

G|------5-0-5-----------5-5--------|---------------------------------|
D|---------------------------------|--------5----3--5----------------|
A|3---------------3----------------|-----------6---------------------|
E|---------------------------------|3--------------------------------|

G|---------------------------------|---------------------------------|
D|---------------------------------|--------7---5-------7---7---5----|
A|--------2-2-------------7---5----|0-------------7-0----------------|
E|0---------------0----------------|---------------------------------|

G|---------------------------------|--------------7------------------|
D|-----------7---------7-----------|------7-------------7------------|
A|0-----7---------7----------7-----|5-------------------------5------|
E|---------------------------------|---------------------------------|

G|---------------------------------|---------------------------------|
D|---------------------------------|---------------------------------|
A|----------------3----------------|------------------------2---5----|
E|3--------------------------------|3-----------3---3----------------|

G|---------------------------------|---------------------------------|
D|5--------------------------------|---------------------------------|
A|--------5-------3-------5--------|7-----7--------------------------|
E|---------------------------------|--------7---\---0----------------|

G|---------------------------------|---------------------------------|
D|5--------------------------------|---------------------------------|
A|--------5-------3-------5--------|------5-2-----2------------------|
E|---------------------------------|----------------3-----3-0--------|

G|---------------------------------|---------------------------------|
D|---------------------------------|------------------------5--------|
A|0-------2-------3-------4-5------|--------2-----2-5-----5----------|
E|---------------------------------|3-----3--------------------------|

Chorus :
G|---------------------------------|---------------------------------|
D|---------------------------------|7-----7-9-----9-10---\-----------|
A|0-------2-------3---/---7--------|---------------------------------|
E|---------------------------------|---------------------------------|

G|---------------------------------|---------------------------------|
D|---------------------------------|---------------------------------|
A|0-----0-2-----2-3-------5--------|----------------1-------5--------|
E|---------------------------------|3-------------3-------------7----|

G|---------------------------------|---------------------------------|
D|---------------------------------|7-----7-9-----9-10---\-----------|
A|0-------2-------3---/---7--------|---------------------------------|
E|---------------------------------|---------------------------------|

G|---------------------------------|---------------------------------|
D|---------------------------------|---------------------------------|
A|0-------5-------3-------4--------|----------5----------------------|
E|---------------------------------|3-------3-------3----------------|

Solo (no bass)

Restart on 2:25

Outro :
G|---------------------------------|---------------------------------|
D|---------------------------------|---------------------------------|
A|0-------2-------3---/---7--------|0-------2-------3----------------|
E|---------------------------------|---------------------------------|

G|---------------------------------|---------------------------------|
D|---------------------------------|---------------------------------|
A|0-----0-2-----2-3-------5--------|----------------------------2----|
E|---------------------------------|3--------------------------------|

G|---------------------------------|---------------------------------|
D|---------------------------------|---------------------------------|
A|0-------2-------3---/---7--------|0-------2-------3----------------|
E|---------------------------------|---------------------------------|

G|---------------------------------|---------------------------------|
D|---------------------------------|---------------------------------|
A|0-----------------------2--------|3---------------5----------------|
E|---------------------------------|---------------------------------|
Suggest correction
Give kudos to tab author, rate the tab!
1 2 3 4 5
comments
print report bad tab
guest
You may want to rate the tab now too:
select rating
Wanna post a correction for this tab? Suggest correction