Oops, an error
Loading. Please wait.

Take It Away bass

version 1
version 1

Whole song

397 views 3 this week
1 commentread comment
1 2 3 4 5
2 more votes to show rating
add to favorites
×
Save as Personal and add changes to this tab that will be seen only by you. Learn more ›
×
You can save this tab as Personal to edit and correct it or add notes. All changes will be seen only by you. Learn more »
launch autoscroll
font size
0
reset
guitar tuner
edit
Autoscroll
slow
fast
+/-
esc
set tempo
stop
Take It Away


0:00 Drum Intro
   
G|-------------------------------|-------------------------------|
D|-------------------------------|-------------------------------|
A|-------------------------------|-------------------------------|
E|-------------------------------|-------------------------------|


G|-------------------------------|---------------------------------|
D|-------------------6\7-5-------|---------------------6\7-5-------|
A|------------------0-----7/-----|--0-3\5-0-5---------0-----7/-----|
E|-------------------------------|---------------------------------|

                  0:17 Take It Away, wanna hear you play...

G|---------------------------------|----------------------------------|
D|--------------5-7----6\7-5-------|----------------------6\7-5-------|
A|--0-3\5-0-5-5-------0------------|--0-3\5-0-5----------0-----7/-----|
E|---------------------------------|----------------------------------|


G|-------------------------------|---------------------------------|
D|-----------5-5\7---5\6-5-------|---------------------5\7-5-------|
A|--0-5-0-5-5-------0------------|--0-3\5-0-5---------0-----7/-----|
E|-------------------------------|---------------------------------|


G|-------------------------------|-------------------------------|
D|-------------------------------|----7-5---------7-----------5-7|
A|5-----5-5-----5-5-5---5-5-5-6-7|0-------7-----0-----5-0-5-5----|
E|-------------------------------|-------------------------------|


G|-------------------------------|-------------------------------|
D|----7-5---------7-----------5-7|----7-5------------------------|
A|0-0-----7-----0-----5-0-5------|0-------7-----0-5-5---5-5-5---0|
E|-------------------------------|-------------------------------|

                        0:50 Lonely driver...

G|-------------------------------|----------------------4--------|
D|-------------------------------|-------------------------------|
A|5-5-5-5-5----------------------|----------------2---2----------|
E|----------2-----3-----3-3---3--|3---3-3---3-2-2----------------|


G|------4---4--------------------|-------------------------------|
D|----------------2-----2-----2\-|7-----7---------------------7h9|
A|2---2---------0----------------|------------0---5-----5--------|
E|-------------------------------|-------------------------------|


G|7-9-9-9\10/--------------------|----------------------4--------|
D|-------------------------------|------------5-------------0----|
A|-------------------------------|--------3h5---5-2---2----------|
E|----------2-----3-----3-3---3--|3---3-3------------------------|


G|------4---4\6/4----------------|-------------------------------|
D|----------------2-----------2\-|7-----7------------------------|
A|2---2--------------------------|------------0---5-----5-5-5-6-7|
E|-------------------------------|-------------------------------|

  1:15 Take It Away, wanna hear you play...

G|-------------------------------|-------------------------------|
D|----7-5---------7-----------5-7|----7-5---------7-----------5-7|
A|0-0-----7-----0-----5-0-5------|0-0-----7-----0-----5-0-5-5----|
E|-------------------------------|-------------------------------|


G|-------------------------------|-------------------------------|
D|----7-5---------7-----------5-7|----7-5------------------------|
A|0-0-----7-----0-----5-0-5-5----|0-0-----7-----0\5-----5-5-5---5|
E|-------------------------------|-------------------------------|


G|-------------------------------|-------------------------------|
D|--------------------7-5--------|7-----------5-7-----7-5--------|
A|5-5---5-5-5-6-7-0-0-----7-----0|--0-5-0-5-5-----0-0-----7-----0|
E|-------------------------------|-------------------------------|


G|-------------------------------|-------------------------------|
D|7-----------5-7-----7-5--------|7-----------5-7-----7-5--------|
A|--0-5-0-5-------0-0-----7-----0|--0-5-0-5-------0-0-----7-----0|
E|-------------------------------|-------------------------------|

                                  1:47 In the audience...

G|-------------------------------|-------------------------------|
D|-------------------------------|-------------------------------|
A|5-5---5-5-5---0-5-5-5-5-5------|-------------------------------|
E|--------------------------2----|3-------3---3---3---3-3-3-3-2--|


G|----------------4-----4---4\6/4|-------------------------------|
D|------4---4--------------------|2-----------2---7-----7-----7--|
A|2---2-------2------------------|-------------------------------|
E|-------------------------------|------0------------------------|


G|----------------7-9-9-\10/-----|-------------------------------|
D|-------------7h9---------------|----------------------------5--|
A|5-----5-----5------------------|------------------------3h5---5|
E|--------------------------2----|3-------3---3-3---3-3-3--------|


G|------4--4p2------4------------|-------------------------------|
D|------------4------------------|2-----2-----2-\-7-----7--------|
A|2---2-----------2-----2--------|-------------------------------|
E|-------------------------------|-------------------------------|

                                  2:15 Take It Away, wanna hear you play...

G|-------------------------------|-------------------------------|
D|-------------------------------|---\7-5---------7-----------5-7|
A|5-----5-5-5-0-0-7-7-7-7-7-5-4-2|0-0-----7-----0---0-5-0-5-5----|
E|-------------------------------|-------------------------------|


G|-------------------------------|-------------------------------|
D|----7-5---------7-----------5-7|----7-5---------7-----------5-7|
A|0-------7-----0-----5-0-5-5----|--0-----7-----0-----5-0-5-5----|
E|-------------------------------|-------------------------------|

                                                  2:35 You never know who...

G|-------------------------------|-------------------------------|
D|----7-5------------------------|-------------------------------|
A|0-0-----7-----0\5-5---5-5-5---0|5-5---5-5-5-5-5-------------3\4|
E|-------------------------------|----------------2--------------|


G|------4------------------------|------4------------------------|
D|--------------2-4--------------|--------------2-4--------------|
A|2---2-----2h4---------------3/4|2---2-----2h4-----------------4|
E|----------------------2-2------|----------------------2-2------|

                                                   2:46 Take It Away, Take It Away

G|------4------------------------|-------------------------------|
D|--------------2-4--------------|-------------------------------|
A|2---2-----2h4-----------------4|2-------------\16/------------\|
E|----------------------2-2------|--------------------5---5------|
 
                  2:50 After hours...             

G|-------------------------------|-------------------------------|
D|-------------------------------|------------5---------4--------|
A|-------------------------------|--------3\5---5-2---2-------2--|
E|----5-----2-----3-----3-3---3-3|3-3---3------------------------|


G|4---------4\6/-----------------|-------------------------------|
D|---------------2-----2-----2-\-|7-----7-----7---------------7h9|
A|------2------------------------|----------0---0-5-----5--5-----|
E|-------------------------------|-------------------------------|


G|7-9-9---9----------------------|----------------------4-4p2----|
D|-------------------------------|------------5---------------2--|
A|-------------------------------|--------3\5---5-2---2----------|
E|----------2-----3-------3------|3-3----3-----------------------|


G|------4---4\6/-----------------|-------------------------------|
D|----------------2----2-----2-\-|7-----7------------------------|
A|2---2--------------------------|------------0---5-----5---5-5--|
E|-------------------------------|-------------------------------|

                  3:18 Outro

G|-------------------------------|------------------------4\6/---|
D|-------------------------------|--5-5-5-------5-------------4p2|
A|5-5-5-5-5----------------------|--------2\5-2---2---2----------|
E|----------2-----3-----3-3-3---3|3------------------------------|


G|--4---------4------------------|-------------------------------|
D|--------------4-2------------2\|7-----7---------------------7h9|
A|2-------2-2--------------------|----------0-0---5-----5-5------|
E|----------------------0--------|-------------------------------|


G|7-9\10/------------------------|----------------------4--4p2---|
D|-------------------------------|------------5/--------------4--|
A|-------------------------------|------2-\-5-----2---2----------|
E|----------2-----3-----3-3---3--|3-3----------------------------|


G|------4-----4------------------|-------------------------------|
D|--------------4-2---2--------2\|7-----7---7--------------------|
A|2---2-----2--------------------|----0-------0---5---5-5-5-5----|
E|----------------------0--------|----------------------------5h7|


G|-------------------------------|-------------------------------|
D|-------------------------------|------5-5-------------4-4------|
A|5-5---------------------------2|2\5-5-------0-0-2---2---------0|
E|----7-7-5-2---3-3---3-3-3---3--|-------------------------------|


G|--4---4---4---4----------------|-------------------------------|
D|------------------2---2---2--\-|7---7-----7-----------------7h9|
A|2-----------------------------0|------0---------0-5---5-0-5----|
E|----------------0-------0------|-------------------------------|


G|7-9---9\12/--------------------|----------------------4--4p2---|
D|-------------------------------|------5-5-------------------4--|
A|------------------------------2|2\5-5-----------2---2----------|
E|----------2-----3---3-3-3---3--|-------------------------------|


G|------4---4--------------------|-------------------------------|
D|--------------4-2---2--------2\|7---7-----7--------------------|
A|2---2--------------------------|--------0---0-\-5-----5-5------|
E|-------------------------------|-------------------------------|


***********************************
| /   Slide up
| \   Slide down
| h   Hammer-on
| p   Pull-off
***********************************

            
            
Suggest correction
Creating personal tab
Creating personal tab
You can edit any tab online and save it as your Personal.

You can edit, replace or remove any tab part or add personal notes – all changes will be seen only by you.

Personal tabs can be accessed anytime from any device, even offline.
Learn more »
Give kudos to tab author, rate the tab!
1 2 3 4 5
comments
print report bad tab
1 comment total.
0 reply
maguri [tm] 31,333 Apr 28, 2016 07:07 AM

Great, thanks! Not that difficult, but so effective ...

guest
You may want to rate the tab now too:
select rating
Wanna post a correction for this tab? Suggest correction