Oops, an error
Loading. Please wait.

Take It Away bass

version 2
version 2

Whole song

82 views 1 this week
no commentswrite comment
1 2 3 4 5
3 more votes to show rating
add to favorites
×
Save as Personal and add changes to this tab that will be seen only by you. Learn more ›
×
You can save this tab as Personal to edit and correct it or add notes. All changes will be seen only by you. Learn more »
launch autoscroll
font size
0
reset
guitar tuner
edit
Autoscroll
slow
fast
+/-
esc
set tempo
stop
Author
Difficulty
[Intro]
G|---------------------------------|---------------------------------|
D|---------------------------------|------/-7---5--------------------|
A|---------------------------------|----0-----------7----------------|
E|---------------------------------|---------------------------------|

G|---------------------------------|---------------------------------|
D|---------------------------------|------/-7---5--------------------|
A|----0-/-3---0---5----------------|----0-----------7----------------|
E|---------------------------------|---------------------------------|

G|---------------------------------|
D|------------------------4---7----|
A|----0-/-3---0---5----------------|
E|---------------------------------|

[Verse 1]
G|---------------------------------|---------------------------------|
D|------/-7---5--------------------|---------------------------------|
A|----0-----------7----------------|----0-/-3---0---5----------------|
E|---------------------------------|---------------------------------|

G|---------------------------------|---------------------------------|
D|------/-7---5--------------------|------------------------4---7----|
A|----0-----------7----------------|----0-/-3---0---5----------------|
E|---------------------------------|---------------------------------|

G|---------------------------------|---------------------------------|
D|------/-7---5--------------------|---------------------------------|
A|----0-----------7----------------|----0-/-3---0---5----------------|
E|---------------------------------|---------------------------------|

G|---------------------------------|---------------------------------|
D|------/-7---5--------------------|---------------------------------|
A|----0-----------7----------------|5---5---5---5---5---5---5---5----|
E|---------------------------------|---------------------------------|

G|---------------------------------|
D|---------------------------------|
A|5---5---5---5---5---5---5---\----|
E|---------------------------------|

[Chorus]
G|---------------------------------|---------------------------------|
D|---------------------------------|------------------------4---7----|
A|----------------7-----------7----|------/-3---0---5----------------|
E|5-----------5--------------------|5--------------------------------|

G|---------------------------------|---------------------------------|
D|---------------------------------|------------------------4---7----|
A|----------------7-----------7----|------/-3---0---5----------------|
E|5-----------5--------------------|5--------------------------------|

G|---------------------------------|---------------------------------|
D|------------7--------------------|------------------------4---7----|
A|----------------7---\------------|------/-3---0---5----------------|
E|5--------------------------------|5--------------------------------|

G|---------------------------------|---------------------------------|
D|------------7--------------------|---------------------------------|
A|----------------7-----------0--/-|5-------5---0---5-------5---0----|
E|5--------------------------------|---------------------------------|

G|---------------------------------|
D|---------------------------------|
A|5-------5---0---5----------------|
E|--------------------2------------|

[Bridge]
G|---------------------------------|---------------------------------|
D|---------------------------------|---------------------------------|
A|---------------------------------|----------------------------3----|
E|3-------3---3---3-------3--------|3-------3-------3-------3--------|

G|------------4--------------------|------------4-----------4--------|
D|---------------------------------|---------------------------------|
A|2-------2------------------------|2-------2------------------------|
E|---------------------------------|---------------------------------|

G|---------------------------------|---------------------------------|
D|---------------------------------|---------------------------------|
A|7-----------7--------------------|---------------------------------|
E|----------------0----------------|5-------5---5---5-------5---0----|

G|---------------------------------|9---9-9-9---9---10---------------|
D|----------------------------7h9--|---------------------------------|
A|5-------5---5---5-------5--------|---------------------------------|
E|---------------------------------|--------------------2------------|

G|---------------------------------|---------------------------------|
D|---------------------------------|---------------------------------|
A|---------------------------------|---------------------------------|
E|3-------3---3---3-------3---3----|3-------3---3---3-------3---3----|

G|------------4--------------------|------------4--------------------|
D|---------------------------------|---------------------------------|
A|2-------2---------------2--------|2-------2-----------2---2--------|
E|---------------------------------|---------------------------------|

G|---------------------------------|---------------------------------|
D|---------------------------------|---------------------------------|
A|---------------------------------|---------------------------------|
E|0-------0-------0-------0--------|5-------5---5---5-------5--------|

G|---------------------------------|
D|---------------------------------|
A|5-------5---5---5-------5---\----|
E|---------------------------------|

[Chorus]
G|---------------------------------|---------------------------------|
D|---------------------------------|------------------------4---7----|
A|--------4---0---7-------7---\----|--------3---0---5----------------|
E|5--------------------------------|5--------------------------------|

G|---------------------------------|---------------------------------|
D|--------7------------------------|------------------------4---7----|
A|------------4---7-------7---\----|------/-3---0---5----------------|
E|5--------------------------------|5--------------------------------|

G|---------------------------------|---------------------------------|
D|------------7--------------------|------------------------4---7----|
A|----------------7-------7---\----|--------3---0---5---5------------|
E|5--------------------------------|5--------------------------------|

G|---------------------------------|---------------------------------|
D|--------7---5--------------------|---------------------------------|
A|----------------7-------7--------|5-------5---0---5-------5---0----|
E|5--------------------------------|---------------------------------|

G|---------------------------------|
D|---------------------------------|
A|5-------5---0---5-------3---0----|
E|---------------------------------|

G|---------------------------------|---------------------------------|
D|7---7----------------------------|------------------------4---7----|
A|--------4---0---7----------------|0---0---3---0---5----------------|
E|---------------------------------|---------------------------------|

G|---------------------------------|---------------------------------|
D|---------------------------------|------------------------4---7----|
A|--------4---0---7-------7--------|----0---3---0---5----------------|
E|5--------------------------------|5--------------------------------|

G|---------------------------------|---------------------------------|
D|---------------------------------|------------------------4---7----|
A|----------------7-------7--------|--------3---0---5----------------|
E|5-------5------------------------|5--------------------------------|

G|---------------------------------|---------------------------------|
D|---------------------------------|---------------------------------|
A|--------4---0---7-------7--------|5-------5---5---5-------5---5----|
E|5--------------------------------|---------------------------------|

G|---------------------------------|
D|---------------------------------|
A|5-------5---5---5----------------|
E|--------------------2------------|

[Bridge]
G|---------------------------------|---------------------------------|
D|---------------------------------|---------------------------------|
A|---------------------------------|---------------------------------|
E|3-------3---3---3-------3---3----|3-------3---3---3-------3--------|

G|---------------------------------|------------4------/6---4--------|
D|-----------/4--------------------|---------------------------------|
A|2-------2------------------------|2-------2------------------------|
E|---------------------------------|---------------------------------|

G|---------------------------------|---------------------------------|
D|---------------------------------|---------------------------------|
A|7-------7-------7-------7--------|---------------------------------|
E|---------------------------------|5-------5-------5-------5--------|

G|---------------------------------|9---9-9-9---9---10---------------|
D|----------------------------7h9--|---------------------------------|
A|5-------5---5---5-------5--------|---------------------------------|
E|---------------------------------|--------------------2------------|

G|---------------------------------|---------------------------------|
D|---------------------------------|------------------------5---5----|
A|---------------------------------|----------------5----------------|
E|3-------3---3---3-------3---3----|3-------3---3--------------------|

G|------------4--------------------|---------------------------------|
D|--------------------------/-4----|---------------------------------|
A|2-------2------------------------|2-------2---2---2-------2---2----|
E|---------------------------------|---------------------------------|

G|---------------------------------|---------------------------------|
D|2-------2---2---2-------2---/-7--|----------------7----------------|
A|---------------------------------|0-------0---0--------------------|
E|---------------------------------|---------------------------------|

G|---------------------------------|---------------------------------|
D|---------------------------------|---------------------------------|
A|5-------5---5---5-------5---0----|7---7---7---7---7---7---7---\----|
E|---------------------------------|---------------------------------|

[Chorus]
G|---------------------------------|---------------------------------|
D|---------------------------------|---------------------------------|
A|--------4-/-5---7-------7---\----|--------3---0---5----------------|
E|5--------------------------------|5-----------------------2---5----|

G|---------------------------------|---------------------------------|
D|------/-7---5--------------------|------------------------4---7----|
A|----------------7-------7--------|0-------3---0---5----------------|
E|5--------------------------------|---------------------------------|

G|---------------------------------|---------------------------------|
D|--------7---5--------------------|--------7---5--------------------|
A|----------------7-------7---\----|0---------------7-----------7-\--|
E|5--------------------------------|---------------------------------|

G|---------------------------------|---------------------------------|
D|---------------------------------|---------------------------------|
A|5---5---5---5---5---5---5---5----|5---5---5---5---5---5---5--------|
E|---------------------------------|---------------------------------|

[Bridge]
G|---------------------------------|---------------------------------|
D|---------------------------------|---------------------------------|
A|---------------------------------|2--------------------------------|
E|2--------------------------------|---------------------------------|

G|---------------------------------|---------------------------------|
D|---------------------------------|---------------------------------|
A|---------------------------------|2--------------------------------|
E|2--------------------------------|---------------------------------|

G|---------------------------------|---------------------------------|
D|---------------------------------|---------------------------------|
A|---------------------------------|2--------------------------------|
E|2--------------------------------|---------------------------------|

G|---------------------------------|---------------------------------|
D|---------------------------------|---------------------------------|
A|---------------------------------|2-------------------------/-16-\-|
E|2--------------------------------|---------------------------------|

G|---------------------------------|---------------------------------|
D|---------------------------------|---------------------------------|
A|---------------------------------|--------5------------------------|
E|--------5-------5----------------|--------------------2------------|

G|---------------------------------|---------------------------------|
D|---------------------------------|---------------------------------|
A|---------------------------------|------------------------5--------|
E|3-------3---3---3-------3---3----|3-------3---3---3---3-------3----|

G|---------------------------------|------------------------4--------|
D|---------------------------------|4--------------------------------|
A|2-------2---2---2-------2---2----|--------2---2---2----------------|
E|---------------------------------|---------------------------------|

G|---------------------------------|---------------------------------|
D|---------------------------------|---------------------------------|
A|7-----------7--------------------|---------------------------------|
E|----------------0----------------|5---------------5----------------|

G|---------------------------------|9---9-9-9---9---10---------------|
D|----------------------------7h9--|---------------------------------|
A|5-----------5---5-------5--------|---------------------------------|
E|---------------------------------|--------------------2------------|

G|---------------------------------|---------------------------------|
D|---------------------------------|---------------------------------|
A|---------------------------------|---------------------------------|
E|3-------3---3---3-------3---3----|3---3---3---3---3---3---3---3----|

G|---------------------------------|---------------------------------|
D|---------------------------------|4--------------------------------|
A|2-------2---2---2-------2---2----|----2---2---2---2---2---2---2----|
E|---------------------------------|---------------------------------|

G|---------------------------------|---------------------------------|
D|2-----------2---2-----------/-7--|----------------7----------------|
A|---------------------------------|0-------0---0--------------------|
E|---------------------------------|---------------------------------|

G|---------------------------------|---------------------------------|
D|---------------------------------|---------------------------------|
A|5-------5---5---5-------5---5----|5-------5---5---5----------------|
E|---------------------------------|--------------------0---2--------|

G|---------------------------------|---------------------------------|
D|---------------------------------|--------5------------------------|
A|---------------------------------|--------------------5-------0----|
E|3-------3-------3---3---3--------|3---3-------------------3--------|

G|------------4---4----------------|----4------/6---4----------------|
D|---------------------------------|---------------------------------|
A|2---------------------------2----|2-------------------2------------|
E|---------------------------------|---------------------------------|

G|---------------------------------|---------------------------------|
D|---------------------------------|---------------------------------|
A|7-----------7--------------------|---------------------------------|
E|----------------0---2---3--------|5-----------5---5-----------5----|

G|---------------------------------|--------7---9---11---------------|
D|---------------------------------|7---9----------------------------|
A|5-----------5---5-------5--------|---------------------------------|
E|---------------------------------|--------------------2------------|

G|---------------------------------|---------------------------------|
D|---------------------------------|------------------------5---\----|
A|---------------------------------|--------------5/7----------------|
E|3-----------3---3-----------3----|3--------------------------------|

G|---------------------------------|------------4--------------------|
D|---------------------------------|---------------------------------|
A|2-----------2---2----------------|2-----------------------2---0----|
E|---------------------------------|---------------------------------|

G|---------------------------------|---------------------------------|
D|---------------------------------|---------------------------------|
A|7-------7-------7-------7--------|---------------------------------|
E|---------------------------------|5-----------5---5-----------5----|

G|---------------------------------|---------------------------------|
D|---------------------------------|---------------------------------|
A|5-----------5---5-----------5----|5-------5------------------------|
E|---------------------------------|------------7-----0-2------------|

G|---------------------------------|---------------------------------|
D|---------------------------------|------------5---5----------------|
A|----------------------------3----|5---5----------------------------|
E|3-------3---3---3-------3--------|---------------------------------|

G|---------------------------------|----4----------------------------|
D|------------4-------4-------4----|---------------------------------|
A|2-------2------------------------|2-----------2---2-------2--------|
E|---------------------------------|---------------------------------|

G|---------------------------------|---------------------------------|
D|----------------------------/-7--|---------------------------------|
A|7---7---7-------7---7---7--------|0---0---0-------0---0---0--------|
E|---------------------------------|---------------------------------|

G|---------------------------------|---9/12-12-12--------------------|
D|---------------------------------|7h9------------------------------|
A|5---5---5-------5---5---5--------|---------------------------------|
E|---------------------------------|--------------------2-------2----|

G|---------------------------------|---------------------------------|
D|---------------------------------|--------------------5-------\----|
A|---------------------------------|----------------5----------------|
E|3-------3---3---3-------3---3----|3-------3---3--------------------|

G|--------------------4------------|---------------------------------|
D|---------------------------------|---------------------------------|
A|2-------2---2---2----------------|2---2---2-------2---2---2--------|
E|---------------------------------|---------------------------------|

G|---------------------------------|---------------------------------|
D|---------------------------------|---------------------------------|
A|7-------7-------7----------------|---------------------------------|
E|--------------------0------------|5-------5-------5-------5--------|

G|---------------------------------|
D|---------------------------------|
A|5-------5-------5---5---5--------|
E|---------------------------------|



************************************

| /  Slide up
| \  Slide down
| h  Hammer-on

************************************
Suggest correction
Creating personal tab
Creating personal tab
You can edit any tab online and save it as your Personal.

You can edit, replace or remove any tab part or add personal notes – all changes will be seen only by you.

Personal tabs can be accessed anytime from any device, even offline.
Learn more »
Give kudos to tab author, rate the tab!
1 2 3 4 5
comments
print report bad tab
guest
You may want to rate the tab now too:
select rating
Wanna post a correction for this tab? Suggest correction