Oops, an error
Loading. Please wait.

Temporary Secretary Bass Tab

25 views 1 this week
no commentswrite comment
1 2 3 4 5
3 more votes to show rating
add to favorites
launch autoscroll
font size
0
reset
guitar tuner
Autoscroll
slow
fast
+/-
esc
set tempo
stop
Help us to improve Ultimate-Guitar.com Take our survey!
×
Bass starts at 00:36 - 00:37

Verse 1 :
G|---------------------------------|---------------------------------|
D|/11-11--11--11--11--11--11--11---|11--11--11--11--11--11--11--11---|
A|---------------------------------|---------------------------------|
E|---------------------------------|---------------------------------|

G|---------------------------------|---------------------------------|
D|11--11--11--11--11--11--11--11---|11--11--11--11--11--11--11--11---|
A|---------------------------------|---------------------------------|
E|---------------------------------|---------------------------------|

G|---------------------------------|---------------------------------|
D|11--11--11--11--11--11--11--11---|11--11--11--11--11--11--11--11---|
A|---------------------------------|---------------------------------|
E|---------------------------------|---------------------------------|

G|---------------------------------|---------------------------------|
D|11--11--11--11--11--11--11--11---|11--11--11--11--11--11--11--11---|
A|---------------------------------|---------------------------------|
E|---------------------------------|---------------------------------|

Chorus :
G|---------------------------------|---------------------------------|
D|11\-----4------------------------|--------4------------------------|
A|----------------4----------------|----------------4----------------|
E|------------------------4--------|------------------------4--------|

G|---------------------------------|---------------------------------|
D|11\-----4------------------------|--------4------------------------|
A|----------------4----------------|----------------4----------------|
E|------------------------4--------|------------------------4--------|

G|---------------------------------|---------------------------------|
D|11\-----4------------------------|--------4------------------------|
A|----------------4----------------|----------------4----------------|
E|------------------------4--------|------------------------4--------|

G|---------------------------------|---------------------------------|
D|11\-----4------------------------|--------4------------------------|
A|----------------4----------------|----------------4----------------|
E|------------------------4--------|------------------------4--------|

Verse 2 :
G|---------------------------------|---------------------------------|
D|/11-11--11--11--11--11--11--11---|11--11--11--11--11--11--11--11---|
A|---------------------------------|---------------------------------|
E|---------------------------------|---------------------------------|

G|---------------------------------|---------------------------------|
D|11--11--11--11--11--11--11--11---|11--11--11--11--11--11--11--11---|
A|---------------------------------|---------------------------------|
E|---------------------------------|---------------------------------|

Chorus :
G|---------------------------------|---------------------------------|
D|11\-----4------------------------|--------4------------------------|
A|----------------4----------------|----------------4----------------|
E|------------------------4--------|------------------------4--------|

G|---------------------------------|---------------------------------|
D|11\-----4------------------------|--------4------------------------|
A|----------------4----------------|----------------4----------------|
E|------------------------4--------|------------------------4--------|

Verse 3 :
G|---------------------------------|---------------------------------|
D|---------------------------------|---------------------------------|
A|4---4---4---4---4---4---4---4----|4---4---4---4---4---4---4-/-11---|
E|---------------------------------|---------------------------------|

G|---------------------------------|---------------------------------|
D|11--11--11--11--11--11--11--11---|11--11--11--11--11--11--11--11---|
A|---------------------------------|---------------------------------|
E|---------------------------------|---------------------------------|

G|---------------------------------|---------------------------------|
D|11--11--11--11--11--11--11--11---|11--11--11--11--11--11--11--11---|
A|---------------------------------|---------------------------------|
E|---------------------------------|---------------------------------|

G|---------------------------------|---------------------------------|
D|11--11--11--11--11--11--11--11---|11--11--11--11--11\-----11\------|
A|---------------------------------|---------------------------------|
E|---------------------------------|---------------------------------|

Bridge :
G|---------------------------------|---------------------------------|
D|---------------------------------|---------------------------------|
A|4---4---4---4---4---4---4---4----|4---4---4---4---4---4---4---4----|
E|---------------------------------|---------------------------------|

G|---------------------------------|---------------------------------|
D|---------------------------------|---------------------------------|
A|5---5---5---5---5---5---5---5----|5---5---5---5---5---5---5---5----|
E|---------------------------------|---------------------------------|

G|---------------------------------|---------------------------------|
D|---------------------------------|---------------------------------|
A|6---6---6---6---6---6---6---6----|6---6---6---6---6---6---6---6----|
E|---------------------------------|---------------------------------|

G|---------------------------------|---------------------------------|
D|---------------------------------|---------------------------------|
A|7---7---7---7---7---7---7---7----|7---7---7---7---7---7---7---7----|
E|---------------------------------|---------------------------------|

G|---------------------------------|---------------------------------|
D|---------------------------------|---------------------------------|
A|8---8---8---8---8---8---8---8----|8---8---8---8---8---8---8---8----|
E|---------------------------------|---------------------------------|

G|---------------------------------|8-/-10--10--/---16---------------|
D|---------------------------------|---------------------------------|
A|8---8---8---8---8---8---8---8----|---------------------------------|
E|---------------------------------|---------------------------------|

Chorus :
G|---------------------------------|---------------------------------|
D|--------4------------------------|--------4------------------------|
A|----------------4----------------|----------------4----------------|
E|------------------------4--------|------------------------4--------|

G|---------------------------------|---------------------------------|
D|--------4------------------------|--------4------------------------|
A|----------------4----------------|----------------4----------------|
E|------------------------4--------|------------------------4--------|

G|---------------------------------|---------------------------------|
D|--------4------------------------|--------4------------------------|
A|----------------4----------------|----------------4----------------|
E|------------------------4--------|------------------------4--------|

G|---------------------------------|---------------------------------|
D|--------4------------------------|--------4------------------------|
A|----------------4----------------|----------------4----------------|
E|------------------------4--------|------------------------4--------|

G|---------------------------------|---------------------------------|
D|---------------------------------|------------------------------/--|
A|4---4---4---4---4---4---4---4----|4---4---4---4---4---4---4---4----|
E|---------------------------------|---------------------------------|

G|---------------------------------|---------------------------------|
D|11--11--11--11--11--11--11--11---|11--11--11--11--11--11-----------|
A|---------------------------------|------------------------4--------|
E|---------------------------------|---------------------------------|

Verse 4 :
G|---------------------------------|------------------------------/--|
D|---------------------------------|---------------------------------|
A|4---4---4---4---4---4---4---4----|4---4---4---4---4---4---4---4----|
E|---------------------------------|---------------------------------|

G|6---6---6---6---6---6---6---6----|6---6---6---6---6---6---6--------|
D|---------------------------------|---------------------------------|
A|---------------------------------|----------------------------4----|
E|---------------------------------|---------------------------------|

Bridge :
G|---------------------------------|---------------------------------|
D|---------------------------------|---------------------------------|
A|3---3---3---3---3---3---3---3----|3---3---3---3---3---3---3---3----|
E|---------------------------------|---------------------------------|

G|---------------------------------|---------------------------------|
D|---------------------------------|---------------------------------|
A|4---4---4---4---4---4---4---4----|4---4---4---4---4---4---4---4----|
E|---------------------------------|---------------------------------|

G|---------------------------------|---------------------------------|
D|---------------------------------|---------------------------------|
A|5---5---5---5---5---5---5---5----|5---5---5---5---5---5---5---5----|
E|---------------------------------|---------------------------------|

G|---------------------------------|---------------------------------|
D|---------------------------------|---------------------------------|
A|6---6---6---6---6---6---6---6----|6---6---6---6---6---6---6---6----|
E|---------------------------------|---------------------------------|

G|---------------------------------|---------------------------------|
D|---------------------------------|---------------------------------|
A|7---7---7---7---7---7---7---7----|7---7---7---7---7---7---7---7----|
E|---------------------------------|---------------------------------|

G|---------------------------------|---------------------------------|
D|---------------------------------|---------------------------------|
A|8---8---8---8---8---8---8---8----|8---8---8---8---8---8---8---8----|
E|---------------------------------|---------------------------------|

Chorus :
G|---------------------------------|---------------------------------|
D|3-/-5---4------------------------|--------4------------------------|
A|----------------4----------------|----------------4----------------|
E|------------------------4--------|------------------------4--------|

G|---------------------------------|---------------------------------|
D|--------4------------------------|--------4------------------------|
A|----------------4----------------|----------------4----------------|
E|------------------------4--------|------------------------4--------|

G|---------------------------------|---------------------------------|
D|--------4------------------------|--------4------------------------|
A|----------------4----------------|----------------4----------------|
E|------------------------4--------|------------------------4--------|

G|---------------------------------|---------------------------------|
D|--------4------------------------|--------4---------------------/--|
A|----------------4----------------|----------------4----------------|
E|------------------------4--------|------------------------4--------|

G|---------------------------------|---------------------------------|
D|11--11--11--11--11--11--11--11---|11--11--11--11--11--11--11--11---|
A|---------------------------------|---------------------------------|
E|---------------------------------|---------------------------------|

G|---------------------------------|---------------------------------|
D|11\-----4------------------------|--------4------------------------|
A|----------------4----------------|----------------4----------------|
E|------------------------4--------|------------------------4--------|

G|---------------------------------|---------------------------------|
D|11--11--11--11--11--11--11--11---|11--11--11--11--11--11--11--\----|
A|---------------------------------|---------------------------------|
E|---------------------------------|---------------------------------|
Suggest correction
Give kudos to tab author, rate the tab!
1 2 3 4 5
comments
print report bad tab
guest
You may want to rate the tab now too:
select rating
Wanna post a correction for this tab? Suggest correction