Oops, an error
Loading. Please wait.

That Would Be Something chords

17,479 views 15 this week
3 commentsread comments
1 2 3 4 5
x 6
add to favorites
×
Save as Personal and add changes to this tab that will be seen only by you. Learn more ›
×
You can save this tab as Personal to edit and correct it or add notes. All changes will be seen only by you. Learn more »
launch autoscroll
font size
0
reset
transpose
0
reset
simplify chords
display chords
guitar tuner
edit
Autoscroll
slow
fast
+/-
esc
set tempo
stop
Author
Unregistered
Strumming
There is no strumming pattern for this song yet. and get +5 IQ
[Intro]
[Riff/E]
                (x2)
e|--------------|
B|--------------|
G|-4--2-1-2-2-1-|
D|--------------|
A|--------------|
E|-0--0-0-0-0-0-|

e|---------------0-0-|
B|-1-2-2-2-2-----0-0-|
G|-------------------|
D|-2-----------------|
A|-0-----------------|
E|-----------3-0--4--|

                      (x2)
e|-----------------0-|
B|-1-2-2-2-2-------0-|
G|-------------------|
D|-2-------------2---|
A|-0-----------------|
E|-----------3-0-----|

[Riff/E]
                (x2)
e|--------------|
B|--------------|
G|-4--2-1-2-2-1-|
D|--------------|
A|--------------|
E|-0--0-0-0-0-0-|

e|---------------0-0-|
B|-1-2-2-2-2-----0-0-|
G|-------------------|
D|-2-----------------|
A|-0-----------------|
E|-----------3-0--4--|

                      (x2)
e|-----------------0-|
B|-1-2-2-2-2-------0-|
G|-------------------|
D|-2-------------2---|
A|-0-----------------|
E|-----------3-0-----|

That would be something.

[Riff/E]
                (x2)
e|--------------|
B|--------------|
G|-4--2-1-2-2-1-|
D|--------------|
A|--------------|
E|-0--0-0-0-0-0-|

e|---------------0-0-|
B|-1-2-2-2-2-----0-0-|
G|-------------------|
D|-2-----------------|
A|-0-----------------|
E|-----------3-0--4--|

                      (x2)
e|-----------------0-|
B|-1-2-2-2-2-------0-|
G|-------------------|
D|-2-------------2---|
A|-0-----------------|
E|-----------3-0-----|

Really would be something.

[Riff/E]
                (x2)
e|--------------|
B|--------------|
G|-4--2-1-2-2-1-|
D|--------------|
A|--------------|
E|-0--0-0-0-0-0-|

e|---------------0-0-|
B|-1-2-2-2-2-----0-0-|
G|-------------------|
D|-2-----------------|
A|-0-----------------|
E|-----------3-0--4--|

                      (x2)
e|-----------------0-|
B|-1-2-2-2-2-------0-|
G|-------------------|
D|-2-------------2---|
A|-0-----------------|
E|-----------3-0-----|

That would be something.
 A7                     E       E/G#
To meet you in the falling rain, mama.
 A7                G   E7
To meet you in the falling rain.
 A7                     E       E/G#
To meet you in the falling rain, mama.
 A7                G   E7
To meet you in the falling rain.

That would be something....

[Interlude]
[Riff/E]
                (x2)
e|--------------|
B|--------------|
G|-4--2-1-2-2-1-|
D|--------------|
A|--------------|
E|-0--0-0-0-0-0-|

e|---------------0-0-|
B|-1-2-2-2-2-----0-0-|
G|-------------------|
D|-2-----------------|
A|-0-----------------|
E|-----------3-0--4--|

                      (x2)
e|-----------------0-|
B|-1-2-2-2-2-------0-|
G|-------------------|
D|-2-------------2---|
A|-0-----------------|
E|-----------3-0-----|

That would be something....

[Interlude]
[Riff/E]
                (x2)
e|--------------|
B|--------------|
G|-4--2-1-2-2-1-|
D|--------------|
A|--------------|
E|-0--0-0-0-0-0-|

e|---------------0-0-|
B|-1-2-2-2-2-----0-0-|
G|-------------------|
D|-2-----------------|
A|-0-----------------|
E|-----------3-0--4--|

                      (x2)
e|-----------------0-|
B|-1-2-2-2-2-------0-|
G|-------------------|
D|-2-------------2---|
A|-0-----------------|
E|-----------3-0-----|

That would be something....

[Riff/E
]
                (x2
)
e|--------------|
B|--------------|
G|-4--2-1-2-2-1-|
D|--------------|
A|--------------|
E|-0--0-0-0-0-0-|

e|---------------0-0-|
B|-1-2-2-2-2-----0-0-|
G|-------------------|
D|-2-----------------|
A|-0-----------------|
E|-----------3-0--4--|

                      (x2)
e|-----------------0-|
B|-1-2-2-2-2-------0-|
G|-------------------|
D|-2-------------2---|
A|-0-----------------|
E|-----------3-0-----|



************************************

| To meet you in the falling rain, mama. 
| To meet you in the falling rain. 

************************************
Suggest correction
Creating personal tab
Creating personal tab
You can edit any tab online and save it as your Personal.

You can edit, replace or remove any tab part or add personal notes – all changes will be seen only by you.

Personal tabs can be accessed anytime from any device, even offline.
Learn more »
comments
print report bad tab
3 comments total.
+1 reply
CerpinTaxt 161 Jul 17, 2010 07:53 AM

Meet you in the fallin rain. Although reaching the phone and ringing isn't too bad haha.

0 reply
milan.vasic.35 10 Jun 18, 2013 03:00 PM

The lyric is "Meet you in the falling rain"

-1 reply
funkengruven 10 Sep 19, 2013 02:15 PM

Reachin the phone and riiiingin mama, reachin tha phone n ringin! serendipitous

guest
Wanna post a correction for this tab? Suggest correction