Oops, an error
Loading. Please wait.

The Lovely Linda Bass Tab

7 views 7 this week
no commentswrite comment
1 2 3 4 5
3 more votes to show rating
add to favorites
launch autoscroll
font size
0
reset
guitar tuner
Autoscroll
slow
fast
+/-
esc
set tempo
stop
Help us to improve Ultimate-Guitar.com Take our survey!
×
Author
Difficulty
intermediate
G|---------------------------------|---------------------------------|
D|--------------------1---0---1----|3---------------------------2----|
A|---------------------------------|----------------3----------------|
E|---------------------------------|---------------------------------|

G|------------------------0---2----|3---------------------------2----|
D|3-------------------3------------|----------------3----------------|
A|----------------3----------------|---------------------------------|
E|---------------------------------|---------------------------------|

G|3--------------------------------|---------------------------------|
D|----------------3-------0---1----|3---------------------------2----|
A|---------------------------------|----------------3----------------|
E|---------------------------------|---------------------------------|

G|------------------------0---2----|3---------------------------2----|
D|3-------------------3------------|----------------3----------------|
A|------------3--------------------|---------------------------------|
E|---------------------------------|---------------------------------|

G|3---------------3---1---0--------|----------------5----------------|
D|------------3---------------4----|3---------------------------2----|
A|---------------------------------|---------------------------------|
E|---------------------------------|---------------------------------|

G|------------5-------10------10---|3---------------------------2----|
D|3--------------------------------|----------------3----------------|
A|---------------------------------|---------------------------------|
E|---------------------------------|---------------------------------|

G|3--------------------------------|---------------------------------|
D|--------------------0---1--------|3-----------3---------------2----|
A|----------------------------3----|----------------3----------------|
E|---------------------------------|---------------------------------|

G|--------------------0---2--------|3---------------------------2----|
D|3-----------2---------------3----|----------------3----------------|
A|---------------------------------|---------------------------------|
E|---------------------------------|---------------------------------|

G|3--------------------------------|---------------------------------|
D|------------0---1---3---5---1----|3-----------3---------------1----|
A|---------------------------------|------------------------3--------|
E|---------------------------------|---------------------------------|

G|--------------------0---2--------|3-----------3-----------0---2----|
D|3-----------3---------------3----|----------------1---3------------|
A|---------------------------------|---------------------------------|
E|---------------------------------|---------------------------------|

G|3--------------------------------|---------------------------------|
D|---------------------------------|---------------------------------|
A|---------------------------------|---------------------------------|
E|---------------------------------|---------------------------------|
Suggest correction
Give kudos to tab author, rate the tab!
1 2 3 4 5
comments
print report bad tab
guest
You may want to rate the tab now too:
select rating
Wanna post a correction for this tab? Suggest correction