Oops, an error
Loading. Please wait.

The Other Me Bass Tab

25 views 1 this week
no commentswrite comment
1 2 3 4 5
3 more votes to show rating
add to favorites
launch autoscroll
font size
0
reset
guitar tuner
Autoscroll
slow
fast
+/-
esc
set tempo
stop
Help us to improve Ultimate-Guitar.com Take our survey!
×
Verse 1 :
G|---------------------------------|---------------------------------|
D|---------------------------------|---------------------------------|
A|5-----------5---5----------------|---------------------------------|
E|---------------------------------|2-----------2---2-------2--------|

G|---------------------------------|---------------------------------|
D|---------------------------------|---------------------------------|
A|2-----------2---2----------------|0---0---3---5-------5---5--------|
E|---------------------------------|---------------------------------|

G|---------------------------------|---------------------------------|
D|---------------------------------|---------------------------------|
A|------------------------------0--|2-----------2---2-------5--------|
E|3-----------3---3-----------3----|---------------------------------|

G|---------------------------------|---------------------------------|
D|---------------------------------|7-------------------7---7--------|
A|7-----------7---7----------------|------------0---0----------------|
E|---------------------------------|---------------------------------|

G|---------------------------------|---------------------------------|
D|---------------------------------|---------------------------------|
A|5-----------5---5----------------|---------------------------------|
E|---------------------------------|2-----------2---2-------2--------|

G|---------------------------------|---------------------------------|
D|---------------------------------|------------------------5--------|
A|2-----------2---2-----------2-1--|0---0---3---5-------5------------|
E|---------------------------------|---------------------------------|

G|---------------------------------|---------------------------------|
D|5-----------5-0------------------|----------------7----------------|
A|----------------2-----------5----|7-----------7--------------------|
E|---------------------------------|---------------------------------|

G|---------------------------------|---------------------------------|
D|---------------------------------|---------------------------------|
A|5-----------5---5----------------|5-----------5---5----------------|
E|---------------------------------|---------------------------------|

Chorus :
G|---------------------------------|---------------------------------|
D|----------------5---5-5----------|5---5-5-------------5-0----------|
A|5---5-5--------------------------|------------------------2---2----|
E|---------------------------------|---------------------------------|

G|---------------------------------|---------------------------------|
D|----------------5---5-5----------|5---5-5-------------5-0----------|
A|5---5-5--------------------------|------------------------2---2----|
E|---------------------------------|---------------------------------|

G|---------------------------------|---------------------------------|
D|----------------5---5-5----------|5---5-5-----4-----------7--------|
A|5---5-5--------------------------|----------------7----------------|
E|---------------------------------|---------------------------------|

G|---------------------------------|---------------------------------|
D|7-------7-7-----7-------7--------|------7-7------------------------|
A|----------------------------0----|0-------------0-0-------0--------|
E|---------------------------------|---------------------------------|

Verse 2 :
G|---------------------------------|---------------------------------|
D|---------------------------------|4-----------4---4-------4--------|
A|5-----------5---5----------------|---------------------------------|
E|---------------------------------|---------------------------------|

G|---------------------------------|---------------------------------|
D|---------------------------------|---------------------------------|
A|2-----------2---2----------------|0---0---3---5-------5---5--------|
E|---------------------------------|---------------------------------|

G|---------------------------------|---------------------------------|
D|---------------------------------|---------------------------------|
A|------------------------------0--|2-----------2---2-------5--------|
E|3-----------3---3-----------3----|---------------------------------|

G|---------------------------------|---------------------------------|
D|--------------------7---7---7----|7-------------------7---7--------|
A|7-----------7---7----------------|------------0---0----------------|
E|---------------------------------|---------------------------------|

G|---------------------------------|---------------------------------|
D|---------------------------------|4-----------4---4-------4--------|
A|5-----------5---5---5------------|---------------------------------|
E|---------------------------------|---------------------------------|

G|---------------------------------|---------------------------------|
D|---------------------------------|------------------------5--------|
A|2-----------2---2-----------2-1--|0---0---3---5-------5------------|
E|---------------------------------|---------------------------------|

G|---------------------------------|---------------------------------|
D|5-----------5-0------------------|----------------7----------------|
A|----------------2----------------|7-----------7--------------------|
E|---------------------------------|---------------------------------|

G|---------------------------------|---------------------------------|
D|---------------------------------|---------------------------------|
A|5-----------5---5----------------|5-----------5---5----------------|
E|---------------------------------|---------------------------------|

Chorus :
G|---------------------------------|---------------------------------|
D|----------------5---5-5----------|5---5-5-------------5-0----------|
A|5---5-5--------------------------|------------------------2---2----|
E|---------------------------------|---------------------------------|

G|---------------------------------|---------------------------------|
D|----------------5---5-5----------|5---5-5-------------5-0----------|
A|5---5-5--------------------------|------------------------2---2----|
E|---------------------------------|---------------------------------|

G|---------------------------------|---------------------------------|
D|----------------5---5-5----------|5---5-5-----4-----------7--------|
A|5---5-5--------------------------|----------------7----------------|
E|---------------------------------|---------------------------------|

G|---------------------------------|
D|7---7-------7---7---7-------7----|
A|---------------------------------|
E|---------------------------------|

Bridge :
G|---------------------------------|---------------------------------|
D|5-----------5---5-------5--------|------------------------5--------|
A|---------------------------------|5-----------5---5----------------|
E|---------------------------------|---------------------------------|

G|---------------------------------|---------------------------------|
D|5---5-------5---5-------5--------|---------------------------------|
A|---------------------------------|5-----------5---5-------5--------|
E|---------------------------------|---------------------------------|

G|---------------------------------|---------------------------------|
D|---------------------------------|---------------------------------|
A|---------------------------------|---------------------------------|
E|7-----------7---7-------5--------|3-----------3---3-------3---5----|

G|---------------------------------|---------------------------------|
D|5-------5-------5-------5--------|---------------------------------|
A|---------------------------------|---------------------------------|
E|---------------------------------|5---5---5---5---5----------------|

Verse 3 :
G|---------------------------------|---------------------------------|
D|---------------------------------|4-----------4---4-------4--------|
A|5-----------5---5----------------|---------------------------------|
E|---------------------------------|---------------------------------|

G|---------------------------------|---------------------------------|
D|---------------------------------|---------------------------------|
A|2-----------2---2-------2---1----|0---0---3---5-------5---5--------|
E|---------------------------------|---------------------------------|

G|---------------------------------|---------------------------------|
D|---------------------------------|---------------------------------|
A|------------------------------0--|2---2-------2---2-------5--------|
E|3-----------3---3-----------3----|---------------------------------|

G|---------------------------------|---------------------------------|
D|--------------------7---7---7----|7-------------------7---7--------|
A|7-----------7---7----------------|------------0---0----------------|
E|---------------------------------|---------------------------------|

G|---------------------------------|---------------------------------|
D|---------------------------------|4--------------------------------|
A|5-----------5---5----------------|---------------------------------|
E|---------------------------------|------------2---2-------2--------|

G|---------------------------------|---------------------------------|
D|---------------------------------|---------------------------------|
A|2-----------2---2-----------2-1--|0---0---3---5-------5------------|
E|---------------------------------|---------------------------------|

G|---------------------------------|---------------------------------|
D|5-----------5-0------------------|----------------7----------------|
A|----------------2-----------5----|7-----------7-----------7--------|
E|---------------------------------|---------------------------------|

G|---------------------------------|---------------------------------|
D|---------------------------------|---------------------------------|
A|5-----------5---5----------------|5---5-------5---5----------------|
E|---------------------------------|---------------------------------|

Chorus :
G|---------------------------------|---------------------------------|
D|----------------5---5-5----------|5---5-5-------------5-0----------|
A|5---5-5--------------------------|------------------------2---2----|
E|---------------------------------|---------------------------------|

G|---------------------------------|---------------------------------|
D|----------------5---5-5----------|5---5-5-------------5-0----------|
A|5---5-5--------------------------|------------------------2---2----|
E|---------------------------------|---------------------------------|

G|---------------------------------|---------------------------------|
D|----------------5---5-5----------|5---5-5-----4-----------7--------|
A|5---5-5--------------------------|----------------7----------------|
E|---------------------------------|---------------------------------|

G|---------------------------------|---------------------------------|
D|7-----7-7-------7-------7--------|5-----5-5-----0-5---5---5---3----|
A|------------0--------------------|---------------------------------|
E|---------------------------------|---------------------------------|


G|---------------------------------|---------------------------------|
D|---------------------------------|---------------------------------|
A|5--------------------------------|---------------------------------|
E|---------------------------------|---------------------------------|

Outro :
G|---------------------------------|---------------------------------|
D|----------------5---5-5----------|5---5-5-------------5-0----------|
A|5---5-5--------------------------|------------------------2---2----|
E|---------------------------------|---------------------------------|

G|---------------------------------|---------------------------------|
D|----------------5---5-5----------|5---5-5-------------5-0----------|
A|5---5-5--------------------------|------------------------2---2----|
E|---------------------------------|---------------------------------|

G|---------------------------------|---------------------------------|
D|----------------5---5-5----------|5---5-5-----4-----------7--------|
A|5---5-5--------------------------|----------------7----------------|
E|---------------------------------|---------------------------------|

G|---------------------------------|
D|7---7-------7---7---7-------7----|
A|---------------------------------|
E|---------------------------------|

G|---------------------------------|---------------------------------|
D|----------------5---5-5----------|5---5-5-------------5-0----------|
A|5---5-5--------------------------|------------------------2---2----|
E|---------------------------------|---------------------------------|

G|---------------------------------|---------------------------------|
D|----------------5---5-5----------|5---5-5-------------5-0----------|
A|5---5-5--------------------------|------------------------2---2----|
E|---------------------------------|---------------------------------|

G|---------------------------------|---------------------------------|
D|----------------5---5-5----------|5---5-5-----4-----------7--------|
A|5---5-5--------------------------|----------------7----------------|
E|---------------------------------|---------------------------------|

G|---------------------------------|---------------------------------|
D|7---7-------7---7---7-------7----|7---7-------7---7---7-------7----|
A|---------------------------------|---------------------------------|
E|---------------------------------|---------------------------------|

G|---------------------------------|---------------------------------|
D|---------------------------------|---------------------------------|
A|5--------------------------------|---------------------------------|
E|---------------------------------|---------------------------------|
Suggest correction
Give kudos to tab author, rate the tab!
1 2 3 4 5
comments
print report bad tab
guest
You may want to rate the tab now too:
select rating
Wanna post a correction for this tab? Suggest correction