Oops, an error
Loading. Please wait.

The Pound Is Sinking Bass Tab

10 views 10 this week
no commentswrite comment
1 2 3 4 5
2 more votes to show rating
add to favorites
launch autoscroll
font size
0
reset
guitar tuner
Autoscroll
slow
fast
+/-
esc
set tempo
stop
Help us to improve Ultimate-Guitar.com Take our survey!
×
Author
Difficulty
Intro :
G|---------------------------------|---------------------------------|
D|---------------------------------|---------------------------------|
A|---------------------------------|---------------------------------|
E|---------------------------------|---------------------------------|

Verse 1 :
G|---------------------------------|---------------------------------|
D|---------------------------------|---------------------------------|
A|---------------------------------|---------------------------------|
E|---------------------------------|--------8---\---1----------------|

G|---------------------------------|---------------------------------|
D|---------------------------------|----------------------------/----|
A|---------------------------------|---------------------------------|
E|------------------------8---\----|1--------------------------------|

G|---------------------------------|---------------------------------|
D|8--------------------------------|---------------------------------|
A|---------------------------------|---------------------------------|
E|---------------------------------|---------------------------------|

G|---------------------------------|---------------------------------|
D|6---------------6-------5--------|---------------------------------|
A|--------6------------------------|8---------------8----------------|
E|---------------------------------|--------8---------------8------8-|

G|---------------------------------|---------------------------------|
D|8---------------8----------------|---------------------------------|
A|--------8---------------8--------|6-------4-------3-------1--------|
E|---------------------------------|---------------------------------|

Chorus :
G|---------------------------------|---------------------------------|
D|6-----------1-/-4-------4h-6-4---|------------1-/-4-------4h-6-4---|
A|--------3------------------------|--------3------------------------|
E|---------------------------------|4--------------------------------|

G|---------------------------------|---------------------------------|
D|6-----------3---4-------4h-6-4---|6-----------3---4-------4h-6-6---|
A|--------6------------------------|--------6------------------------|
E|---------------------------------|---------------------------------|

G|---------------------------------|---------------------------------|
D|---------------------------------|---------------------------------|
A|---------------------------------|---------------------------------|
E|1--------------------------------|---------------------------------|

Bridge 1 :
G|---------------------------------|---------------------------------|
D|3---------------3----------------|---------------------------------|
A|--------3---------------3--------|4-----------------------3--------|
E|---------------------------------|--------4-------1----------------|

G|---------------------------------|---------------------------------|
D|---------------------------------|---------------------------------|
A|--------3---------------3--------|1---------------1----------------|
E|1---------------1----------------|--------1---------------1--------|

G|---------------------------------|---------------------------------|
D|---------------------------------|6--------------------------------|
A|1---------------6----------------|--------4------------------------|
E|--------1---------------6--------|---------------------------------|

G|---------------------------------|---------------------------------|
D|---------------------------------|---------------------------------|
A|----------------------------4----|------------4--------------------|
E|1--------------------------------|----------------1----------------|

G|---------------------------------|---------------------------------|
D|---------------------------------|---------------------------------|
A|------------4---------------4----|---------------------------------|
E|---------------------------------|1--------------------------------|

Verse 2 :
G|---------------------------------|---------------------------------|
D|6---------------6-------5--------|---------------------------------|
A|--------6------------------------|8---------------8----------------|
E|---------------------------------|--------8---------------8--------|

G|---------------------------------|---------------------------------|
D|---------------------------------|---------------------------------|
A|--------8---------------8--------|6-------4-------3-------1--------|
E|6---------------6----------------|---------------------------------|

Chorus :
G|---------------------------------|---------------------------------|
D|6-----------1-/-4-------4h-6-4---|------------1-/-4-------4h-6-4---|
A|--------3------------------------|--------3------------------------|
E|---------------------------------|4--------------------------------|

G|---------------------------------|---------------------------------|
D|6-----------3---4-------4h-6-4---|6-----------3---4-------4h-6-6---|
A|--------6------------------------|--------6------------------------|
E|---------------------------------|---------------------------------|

(Tempo change)
Bridge 2 :
G|---------------------------------|--------5------------------------|
D|3--------------------------------|---------------------------------|
A|--------3------------------------|7---------------8-------7--------|
E|----------------4-------1--------|---------------------------------|

G|--------3h5-3--------------------|---------------------------------|
D|---------------------------------|--------3---3----------------8-9-|
A|6---------------6-------6---\----|----------------6-------8-8------|
E|---------------------------------|4-----4--------------------------|

G|------/-5------------------------|---------------------------------|
D|---------------------------------|----------------5-----5----------|
A|6---------------6-------6--------|--------8-----8---------8-----8--|
E|---------------------------9--8--|6-----6--------------------------|

G|---------------------------------|-----------------|
D|---------------------------------|-----------------| *4 bars instead of 8
A|6-------6-------6-------4--------|3-------3---3---3|
E|---------------------------------|-----------------|

G|---------------------------------|---------------------------------|
D|---------------------------------|---------------------------------|
A|3---3---3---3-----------3--------|---------------------------------|
E|---------------------------------|4--------------------------------|

G|---------------------------------|---------------------------------|
D|---------------------------------|---------------------------------|
A|---------------------------------|4--------------------------------|
E|1--------------------------------|---------------------------------|

G|---------------------------------|---------------------------------|
D|---------------------------------|---------------------------------|
A|3--------------------------------|---------------------------------|
E|---------------------------------|1--------------------------------|

G|---------------------------------|---------------------------------|
D|---------------------------------|---------------------------------|
A|3--------------------------------|4--------------------------------|
E|---------------------------------|---------------------------------|

G|---------------------------------|---------------------------------|
D|---------------------------------|---------------------------------|
A|---------------------------------|---------------------------------|
E|---------------------------------|---------------------------------|

Verse 3 :
G|---------------------------------|---------------------------------|
D|---------------------------------|---------------------------------|
A|---------------------------------|---------------------------------|
E|---------------------------------|--------8---\---1----------------|

G|---------------------------------|---------------------------------|
D|---------------------------------|-----------------------------/---|
A|---------------------------------|---------------------------------|
E|------------------------8---\----|1--------------------------------|

G|---------------------------------|15h17-17-------------------------|
D|8--------------------------------|---------------------------------|
A|---------------------------------|---------------------------------|
E|---------------------------------|---------------------------------|



*********************************** 

| / Slide up
| \ Slide down
| h Hammer-on

*********************************** 
Suggest correction
Give kudos to tab author, rate the tab!
1 2 3 4 5
comments
print report bad tab
guest
You may want to rate the tab now too:
select rating
Wanna post a correction for this tab? Suggest correction