Oops, an error
Loading. Please wait.

The Song We Were Singing bass

version 1
version 1

Whole song

Interactive

40 views 1 this week
no commentswrite comment
1 2 3 4 5
3 more votes to show rating
add to favorites
×
Save as Personal and add changes to this tab that will be seen only by you. Learn more ›
×
You can save this tab as Personal to edit and correct it or add notes. All changes will be seen only by you. Learn more »
launch autoscroll
font size
0
reset
guitar tuner
edit
Autoscroll
slow
fast
+/-
esc
set tempo
stop
Intro :
G|---------------------------------|---------------------------------|
D|---------------------------------|---------------------------------|
A|5-----------7-----------9--------|----7-----------5-----------7----|
E|---------------------------------|---------------------------------|

G|---------------------------------|
D|---------------------------------|
A|--------9-----------7------------|
E|---------------------------------|

Verse 1 :
G|---------------------------------|---------------------------------|
D|---------------------------------|---------------------------------|
A|5-----------7-----------9--------|----7-----------5-----------7----|
E|---------------------------------|---------------------------------|

G|---------------------------------|---------------------------------|
D|-----------------------/5--------|---------------------------------|
A|--------9-----------7------------|5-----------7-----------9--------|
E|---------------------------------|---------------------------------|

G|---------------------------------|---------------------------------|
D|---------------------------------|---------------------------------|
A|----7-----------5-----------7----|--------9-----------7------------|
E|---------------------------------|---------------------------------|

G|------------7--------|
D|--------7------------| *6 bars instead of 8
A|5----5h8-------------|
E|---------------------|

Chorus :
G|---------------------------------|---------------------------------|
D|---------------------------------|---------------------------------|
A|3-----------2-----------5--------|----5-----------3-----------2----|
E|---------------------------------|---------------------------------|

G|---------------------------------|---------------------------------|
D|---------------------------------|---------------------------------|
A|--------5-----------5-------0----|3-----------2-----------5--------|
E|---------------------------------|---------------------------------|

G|---------------------------------|---------------------------------|
D|---------------------------------|---------------------------------|
A|----5-----------3-----------2----|--------------------5------------|
E|---------------------------------|--------3------------------------|

G|-------------------------|
D|-------------------------| *7 bars instead of 8
A|-------------------------|
E|-------------------------|

Verse 2 :
G|---------------------------------|---------------------------------|
D|---------------------------------|---------------------------------|
A|5-----------7-----------9--------|----7-----------5-----------7----|
E|---------------------------------|---------------------------------|

G|---------------------------------|---------------------------------|
D|------------------------7--------|---------------------------------|
A|--------9-----------7------------|5-----------7-----------9--------|
E|---------------------------------|---------------------------------|

G|---------------------------------|---------------------------------|
D|---------------------------------|---------------------------------|
A|----7-----------5-----------7----|--------9-------7---5------------|
E|---------------------------------|---------------------------------|

Chorus :
G|---------------------------------|---------------------------------|
D|---------------------------------|---------------------------------|
A|3-----------2-----------5--------|----5-----------3-----------2----|
E|---------------------------------|---------------------------------|

G|---------------------------------|---------------------------------|
D|---------------------------------|---------------------------------|
A|--------5-----------5------------|3-----------2-----------5--------|
E|---------------------------------|---------------------------------|

G|---------------------------------|---------------------------------|
D|---------------------------------|---------------------------------|
A|----5-----------3-----------2----|--------5-----------5------------|
E|---------------------------------|---------------------------------|

G|---------------------------------|-------------|
D|---------------------------------|-------------| * 4 bars instead of 8
A|3-----------2--------------------|----5--------|
E|------------------------3--------|-------------|

Verse 3 :
G|---------------------------------|---------------------------------|
D|---------------------------------|---------------------------------|
A|5-----------7-----------9--------|----7-----------5-----------7----|
E|---------------------------------|---------------------------------|

G|---------------------------------|---------------------------------|
D|---------------------------------|---------------------------------|
A|--------9-----------7------------|5-----------7-----------9--------|
E|---------------------------------|---------------------------------|

G|----------------7----------------|---------------------------------|
D|-------/7------------------------|---------------------------------|
A|----7-----------------------7----|--------9-----------7------------|
E|---------------------------------|---------------------------------|

G|---------------------------------|-------------|
D|---------------------------------|-------------| * 4 bars instead of 8
A|5-----------7-----------9--------|7---5--------|
E|---------------------------------|-------------|

Chorus :
G|---------------------------------|---------------------------------|
D|---------------------------------|---------------------------------|
A|3-----------2-----------0--------|----5-----------3-----------2----|
E|---------------------------------|---------------------------------|

G|---------------------------------|---------------------------------|
D|---------------------------------|---------------------------------|
A|--------0-----------5------------|3-----------2-----------5--------|
E|---------------------------------|---------------------------------|

G|---------------------------------|---------------------------------|
D|---------------------------------|---------------------------------|
A|----5-----------3-----------2----|--------------------5------------|
E|---------------------------------|--------3------------------------|

G|---------------------------------|---------------------------------|
D|---------------------------------|---------------------------------|
A|3-----------2--------------------|----5-----------3-----------2----|
E|------------------------3--------|---------------------------------|

G|---------------------------------|
D|---------------------------------|
A|--------------------5------------|
E|--------3------------------------|

A little break

Verse 4 :
G|---------------------------------|---------------------------------|
D|---------------------------------|---------------------------------|
A|5-----------7-----------9--------|----7-----------5-----------7----|
E|---------------------------------|---------------------------------|

G|---------------------------------|---------------------------------|
D|----------------------------7----|---------------------------------|
A|--------9-----------7------------|5-----------7-----------9--------|
E|---------------------------------|---------------------------------|

G|---------------------------------|---------------------------------|
D|---------------------------------|---------------------------------|
A|----7-----------5-----------7----|--------9-----------7------------|
E|---------------------------------|---------------------------------|

G|---------------------------------|-------------|
D|---------------------------------|--------7----| * 4 bars instead of 8
A|5-----------5-----------5--------|----5--------|
E|---------------------------------|-------------|

Chorus :
G|---------------------------------|---------------------------------|
D|---------------------------------|---------------------------------|
A|3-----------2-----------0--------|----5-----------3-----------2----|
E|---------------------------------|---------------------------------|

G|---------------------------------|---------------------------------|
D|---------------------------------|---------------------------------|
A|--------5-----------5------------|3-----------2-----------0--------|
E|---------------------------------|---------------------------------|

G|---------------------------------|---------------------------------|
D|---------------------------------|---------------------------------|
A|----5-----------3-----------2----|--------5-----------5------------|
E|---------------------------------|---------------------------------|

G|---------------------------------|---------------------------------|
D|---------------------------------|---------------------------------|
A|3-----------2-----------0--------|----5-----------5-----------5----|
E|---------------------------------|---------------------------------|

G|---------------------------------|---------------------------------|
D|---------------------------------|---------------------------------|
A|--------3-----------2------------|------------5-----------3--------|
E|---------------------------------|3--------------------------------|

G|---------------------------------|---------------------------------|
D|----------------5-----------4----|---------------------------------|
A|----2----------------------------|--------3-----------2------------|
E|---------------------------------|---------------------------------|

G|---------------------------------|---------------------------------|
D|---------------------------------|---------------------------------|
A|---------------------------------|5--------------------------------|
E|---------------------------------|---------------------------------|
Suggest correction
Creating personal tab
Creating personal tab
You can edit any tab online and save it as your Personal.

You can edit, replace or remove any tab part or add personal notes – all changes will be seen only by you.

Personal tabs can be accessed anytime from any device, even offline.
Learn more »
Give kudos to tab author, rate the tab!
1 2 3 4 5
comments
print report bad tab
guest
You may want to rate the tab now too:
select rating
Wanna post a correction for this tab? Suggest correction