Oops, an error
Loading. Please wait.

This Never Happened Before bass

version 2
version 2

Whole song

Interactive

37 views 1 this week
no commentswrite comment
1 2 3 4 5
3 more votes to show rating
add to favorites
×
Save as Personal and add changes to this tab that will be seen only by you. Learn more ›
×
You can save this tab as Personal to edit and correct it or add notes. All changes will be seen only by you. Learn more »
launch autoscroll
font size
0
reset
guitar tuner
edit
Autoscroll
slow
fast
+/-
esc
set tempo
stop
Author
Difficulty
Intro :
G|---------------------------------|---------------------------------|
D|---------------------------------|---------------------------------|
A|---------------------------------|---------------------------------|
E|---------------------------------|---------------------------------|

G|---------------------------------|--------------------14--12-------|
D|---------------------------------|---------------12h14-------------|
A|---------------------------------|------------12-------------------|
E|---------------------------------|---------------------------------|

G|---------------------------------|--------------------14--12-------|
D|--------14-----------------------|----10\--------------------------|
A|------------12----------12--12---|------------12--12---------------|
E|---------------------------------|---------------------------------|

G|------------14------12------11---|------------|
D|----12h-14-----------------------|----12------| *3 instead of 8
A|---------------------------------|------------|
E|---------------------------------|------------|

G|---------------------------------|---------------------------------|
D|---------------------------------|---------------------------------|
A|12----------12--12-----------5-/-|7-----------7---7----------------|
E|---------------------------------|---------------------------------|

G|---------------------------------|---------------------------------|
D|7-----------7---7----------------|---------------------------------|
A|---------------------------------|7-----------7---7----------------|
E|---------------------------------|---------------------------------|

Verse 1 :
G|---------------------------------|---------------------------------|
D|7-----------7---7-------7--------|6-----------6--------------------|
A|---------------------------------|----------------4-----------4----|
E|---------------------------------|---------------------------------|

G|---------------------------------|---------------------------------|
D|4---------------4-------4---6----|7-----------7--------------------|
A|---------------------------------|----------------7----------------|
E|---------------------------------|----------------------------6----|

G|---------------------------------|---------------------------------|
D|---------------------------------|---------------------------------|
A|4-----------4---4-------4---3----|0-----------0---0------------5-/-|
E|---------------------------------|---------------------------------|

G|---------------------------------|---------------------------------|
D|---------------------------------|---------------------------------|
A|7-------7---7---7----------------|7-----------7---7----------------|
E|---------------------------------|---------------------------------|

G|---------------------------------|---------------------------------|
D|7-----------7---7----------------|6-----------6--------------------|
A|------------------------7--------|----------------4-----------4----|
E|---------------------------------|---------------------------------|

G|---------------------------------|---------------------------------|
D|4-----------4---4-----------4----|---------------------------------|
A|------------------------4--------|0--------------------------------|
E|---------------------------------|------------6---0----------------|

G|------------------------6---4----|---------------------------------|
D|-------------------/6------------|7-----------7---7-----------7----|
A|4-----------4---4----------------|---------------------------------|
E|---------------------------------|---------------------------------|

G|---------------------------------|---------------------------------|
D|----------------------------2----|7-----------7--------------------|
A|7-----------7------------2-------|----------------5-----------5----|
E|----------------0---3-/4---------|---------------------------------|

Chorus :
G|---------------------------------|---------------------------------|
D|5-----------5---5----------------|7-----------7--------------------|
A|--------------------5---2--------|----------------5-----------5----|
E|----------------------------3----|---------------------------------|

G|---------------------------------|---------------------------------|
D|--------------/-2----------------|7-----------7--------------------|
A|------/-2-------------/-5--------|----------------5-----------5----|
E|3--------------------------------|---------------------------------|

G|---------------------------------|------7h9---7--------------------|
D|---------------------------------|----5----------------------------|
A|--------5-------7----------------|---------------------------------|
E|3--------------------------------|---------------------------------|

G|----------------|
D|----------------| * 4 instead of 8
A|----------------|
E|----------------|

Verse 2 :
G|---------------------------------|---------------------------------|
D|7-----------7---7-------7--------|6-----------6--------------------|
A|---------------------------------|----------------4-----------4----|
E|---------------------------------|---------------------------------|

G|---------------------------------|------/-7------------------------|
D|4---------------4-------4--------|7--------------------------------|
A|------------4---------------7----|----------------7----------------|
E|---------------------------------|------------------------0--------|

G|---------------------------------|---------------------------------|
D|---------------------------------|7-----------7---7-----------7----|
A|4-----------4---4-------4--------|---------------------------------|
E|----------------------------0----|---------------------------------|

G|---------------------------------|---------------------------------|
D|---------------------------------|7-----------7---7----------------|
A|------------2---4----------------|----------------------------0----|
E|0-------2/4-------------0--------|---------------------------------|

G|---------------------------------|---------------------------------|
D|---------------------------------|7-----------7--------------------|
A|7-----------7---7-------7--------|----------------5-----------5----|
E|---------------------------------|---------------------------------|

Chorus :
G|---------------------------------|---------------------------------|
D|---------------------------------|7-----------7--------------------|
A|---------------------------------|----------------5-----------5----|
E|3-----------3---3-----/-7--------|---------------------------------|

G|--------------------2-/-4--------|---------------------------------|
D|---------------------------------|7-----------7--------------------|
A|---------------------------------|----------------5-----------5----|
E|3---3-------3---3----------------|---------------------------------|

G|---------------------------------|--------9---7-----------9--------|
D|---------------------------------|-----2/9------------9-------9----|
A|------------5--------------------|---------------------------------|
E|3---------------0---0------------|---------------------------------|

G|--------9-------|
D|----------------| * 4 instead of 8
A|7---------------|
E|----------------|

Verse 3 :
G|---------------------------------|---------------------------------|
D|7-----------7---7-----7/9---7----|6-----------6--------------------|
A|---------------------------------|----------------4-----------4----|
E|---------------------------------|---------------------------------|

G|---------------------------------|------/-7------------------------|
D|4---------------4-------4---6----|7--------------------------------|
A|------------4--------------------|----------------7----------------|
E|---------------------------------|---------------------------------|

G|---------------------------------|---------------------------------|
D|---------------------------------|7-----------7---7----------------|
A|4-----------4-------4---0---4----|---------------------------------|
E|----------------6----------------|---------------------------------|

G|---------------------------------|---------------------------------|
D|---------------------------------|7-----------7---7---7-------7----|
A|7-----------7---7-------7--------|---------------------------------|
E|---------------------------------|---------------------------------|

G|---------------------------------|---------------------------------|
D|2-------2h4-----4h6-4------------|7-----------7---7-----------7----|
A|------------------------7--------|---------------------------------|
E|---------------------------------|---------------------------------|

G|---------------------------------|
D|---------------------------------|
A|7---7-------7---7---7-------7----|
E|--------7---------------7--------|

Outro :
G|-------------------------------/-|4---4---4---4---4---4------------|
D|---------------------------------|---------------------------------|
A|---------------------------------|---------------------------------|
E|3---3---3---3---3---3---3---3----|------------------------0---0----|

G|---------------------------------|5---5---5---5---5----------------|
D|7-------7-------7-------7---9----|---------------------------------|
A|---------------------------------|------------------------3---2----|
E|---------------------------------|---------------------------------|

G|---------------------------------|---------------------------------|
D|---------------------------------|---------------------------------|
A|---------------------------------|---------------------------------|
E|0--------------------------------|---------------------------------|

            
            
Suggest correction
Creating personal tab
Creating personal tab
You can edit any tab online and save it as your Personal.

You can edit, replace or remove any tab part or add personal notes – all changes will be seen only by you.

Personal tabs can be accessed anytime from any device, even offline.
Learn more »
Give kudos to tab author, rate the tab!
1 2 3 4 5
comments
print report bad tab
guest
You may want to rate the tab now too:
select rating
Wanna post a correction for this tab? Suggest correction