Oops, an error
Loading. Please wait.

This One Bass Tab

28 views 1 this week
no commentswrite comment
1 2 3 4 5
3 more votes to show rating
add to favorites
launch autoscroll
font size
0
reset
guitar tuner
Autoscroll
slow
fast
+/-
esc
set tempo
stop
Help us to improve Ultimate-Guitar.com Take our survey!
×
Tripping The Live Fantastic version

Start after “Did I ever…” 
G|---------------------------------|---------------------------------|
D|---------------------------------|---------------------------------|
A|---------------------------------|---------------------------------|
E|---------------------------------|---------------------------------|
                                                              Did I ever
G|---------------------------------|---------------------------------|
D|7---7---7---7---7---7---7---7----|---------------------------------|
A|---------------------------------|9---9---9---9---9---9---9---7----|
E|---------------------------------|---------------------------------|

G|---------------------------------|---------------------------------|
D|---------------------------------|---------------------------------|
A|4---4---4---4---4---4---4---4----|5---5---5---5---5---5---5---5----|
E|---------------------------------|---------------------------------|

G|---------------------------------|---------------------------------|
D|7---7---7---7---7---7---7---7----|--------------------5---5---5----|
A|---------------------------------|7---7---7---7---7----------------|
E|---------------------------------|---------------------------------|

G|---------------------------------|---------------------------------|
D|7---7---7-------7-------7---7----|----7---0---7---7---7---7--------|
A|------------0-------0------------|0--------------------------------|
E|---------------------------------|---------------------------------|

Chorus :
G|---------------------------------|---------------------------------|
D|9---9----------------------------|7---7---7---4-----------4--------|
A|------------7-----------7---7----|---------------------------------|
E|---------------------------------|---------------------------------|

G|---------------------------------|---------------------------------|
D|9-------9------------------------|7---7---7---7--------------------|
A|------------7-------7---7---7----|---------------------------------|
E|---------------------------------|---------------------------------|

G|---------------------------------|---------------------------------|
D|---------------------------------|---------------------------------|
A|--------5---7-------7---4---7----|---------------------------------|
E|7---5----------------------------|5---7---5---2-------2---3--------|

G|---------------------------------|---------------------------------|
D|---------------------------------|7---5---4------------------------|
A|--------7------------------------|------------0---0---0---0---0----|
E|7--------------------------------|---------------------------------|

G|---------------------------------|---------------------------------|
D|---------------------------------|------------4-------4------------|
A|--------5---7--------------------|------------------------7--------|
E|7---5---------------0---2---4----|5-------5-------------------9----|

G|---------------------------------|---------------------------------|
D|9---9-----------------------6----|--------4---7-------7---4---7----|
A|------------7-------7---9--------|0---5----------------------------|
E|---------------------------------|---------------------------------|

G|---------------------------------|---------------------------------|
D|---------------------------------|------------4-------4------------|
A|------------7--------------------|---------------------------------|
E|7---7---7-----------0---2---4----|5---5---4------------------------|

G|---------------------------------|---------------------------------|
D|---------------------------------|7---5---4------------------------|
A|--------7------------------------|------------0--------------------|
E|7--------------------------------|---------------------------------|

Verse 2 :
G|---------------------------------|---------------------------------|
D|7---7---7---7---7---7---7---7----|---------------------------------|
A|---------------------------------|9---9---9---9---9---9---9---9----|
E|---------------------------------|---------------------------------|

G|---------------------------------|---------------------------------|
D|---------------------------------|---------------------------------|
A|4---4---4---4---4---4---4---4----|5---5---5---5---5---5---5---5----|
E|---------------------------------|---------------------------------|

G|---------------------------------|---------------------------------|
D|7---7---7---7---7---7---7---7----|--------------------5---5---5----|
A|---------------------------------|7---7---7---7---7----------------|
E|---------------------------------|---------------------------------|

G|---------------------------------|------------14--14---------------|
D|7---7---7---7---7---7---7---7----|7---7-/-14-----------------------|
A|---------------------------------|---------------------------------|
E|---------------------------------|---------------------------------|

Chorus :
G|---------------------------------|---------------------------------|
D|---------------------------------|------------4-------4------------|
A|--------5---7--------------------|------------------------7--------|
E|7---5---------------0---2---4----|5-------5-------------------9----|

G|---------------------------------|---------------------------------|
D|9---9-----------------------6----|--------4---7-------7---4---7----|
A|------------7-------7---9--------|0---5----------------------------|
E|---------------------------------|---------------------------------|

G|---------------------------------|---------------------------------|
D|---------------------------------|------------4-------4------------|
A|------------7--------------------|---------------------------------|
E|7---7---7-----------0---2---4----|5---5---4------------------------|

G|---------------------------------|---------------------------------|
D|---------------------------------|7---5---4------------------------|
A|--------7------------------------|------------0-------0---4---0----|
E|7--------------------------------|---------------------------------|

G|---------------------------------|---------------------------------|
D|---------------------------------|------------4-------4------------|
A|--------5---7--------------------|------------------------7--------|
E|7---5---------------0---2---4----|5-------5-------------------9----|

G|---------------------------------|---------------------------------|
D|9---9-----------------------6----|--------4---7-------7---4---7----|
A|------------7-------7---9--------|0---5----------------------------|
E|---------------------------------|---------------------------------|

G|---------------------------------|---------------------------------|
D|---------------------------------|------------4-------4------------|
A|------------7--------------------|---------------------------------|
E|7---7---7-----------0---2---4----|5---5---4------------------------|

G|---------------------------------|---------------------------------|
D|---------------------------------|7---5---4-----------7------------|
A|--------7------------------------|------------0-----------4---0----|
E|7--------------------------------|---------------------------------|

Bridge :
G|---------------------------------|---------------------------------|
D|---------------------------------|7---7---7------------------------|
A|5---------------7---7---7---7----|----------------9---9---9---9----|
E|---------------------------------|---------------------------------|

G|---------------------------------|----------------/---6---6--------|
D|---------------------------------|7---7---7------------------------|
A|10--10--10--8---7---7---7---7----|------------4--------------------|
E|---------------------------------|---------------------------------|

G|---------------------------------|---------------------------------|
D|---------------------------------|7---7---7------------------------|
A|5---------------7---7---7--------|----------------9---9---9---9----|
E|---------------------------------|---------------------------------|

G|---------------------------------|---------------------------------|
D|5---5---5---5---5---5---5---5----|---------------------------------|
A|---------------------------------|---------------------------------|
E|---------------------------------|0---0---0---0---0---0---0---7----|

G|---------------------------------|---------------------------------|
D|---------------------------------|---------------------------------|
A|---------------------------------|----------------7----------------|
E|0---0---0---7---0---0---0---0----|0---0---0---0--------------------|

Verse 3 :
G|---------------------------------|---------------------------------|
D|7---7---7---7---7---7---7---7----|---------------------------------|
A|---------------------------------|9---9---9---9---9---9---9---9----|
E|---------------------------------|---------------------------------|

G|---------------------------------|---------------------------------|
D|---------------------------------|---------------------------------|
A|4---4---4---4---4---4---4---4----|5---5---5---5---5---5---5---5----|
E|---------------------------------|---------------------------------|

G|---------------------------------|---------------------------------|
D|7---7---7---7---7---7---7---7----|--------------------5---5---5----|
A|---------------------------------|7---7---7---7---7----------------|
E|---------------------------------|---------------------------------|

G|---------------------------------|---------------------------------|
D|7---7---7---7--------------------|---------------------------------|
A|---------------------------------|---------------------------------|
E|---------------------------------|---------------------------------|

Chorus :
G|---------------------------------|---------------------------------|
D|---------------------------------|------------4-------4------------|
A|--------5---7--------------------|------------------------7--------|
E|7---5---------------0---2---4----|5-------5-------------------9----|

G|---------------------------------|---------------------------------|
D|9---9-----------------------6----|--------4---7-------7---4---7----|
A|------------7-------7---9--------|0---5----------------------------|
E|---------------------------------|---------------------------------|

G|---------------------------------|---------------------------------|
D|---------------------------------|------------4-------4------------|
A|------------7--------------------|---------------------------------|
E|7---7---7-----------0---2---4----|5---5---4------------------------|

G|---------------------------------|---------------------------------|
D|---------------------------------|7---5---4------------------------|
A|--------7------------------------|------------0-------0---4---0----|
E|7--------------------------------|---------------------------------|

G|---------------------------------|---------------------------------|
D|---------------------------------|------------4-------4------------|
A|--------5---7--------------------|------------------------7--------|
E|7---5---------------0---2---4----|5-------5-------------------9----|

G|---------------------------------|---------------------------------|
D|9---9-----------------------6----|--------4---7-------7---4---7----|
A|------------7-------7---9--------|0---5----------------------------|
E|---------------------------------|---------------------------------|

G|---------------------------------|---------------------------------|
D|---------------------------------|------------4-------4------------|
A|------------7--------------------|---------------------------------|
E|7---7---7-----------0---2---4----|5---5---4------------------------|

G|---------------------------------|---------------------------------|
D|---------------------------------|7---5---4------------------------|
A|--------7------------------------|------------0--------------------|
E|7--------------------------------|---------------------------------|

Outro :
G|---------------------------------|---------------------------------|
D|---------------------------------|---------------------------------|
A|---------5---0---5---0------0----|5---0---5---0---5---0---5--------|
E|---------------------------------|---------------------------------|



***********************************
/ = slide up
***********************************
Suggest correction
Give kudos to tab author, rate the tab!
1 2 3 4 5
comments
print report bad tab
guest
You may want to rate the tab now too:
select rating
Wanna post a correction for this tab? Suggest correction