Oops, an error
Loading. Please wait.

Through Our Love bass

16 views 1 this week
no commentswrite comment
1 2 3 4 5
3 more votes to show rating
add to favorites
×
Save as Personal and add changes to this tab that will be seen only by you. Learn more ›
×
You can save this tab as Personal to edit and correct it or add notes. All changes will be seen only by you. Learn more »
launch autoscroll
font size
0
reset
guitar tuner
edit
Autoscroll
slow
fast
+/-
esc
set tempo
stop
Author
Difficulty
Intro (strings) :
G|---------------------------------|---------------------------------|
D|---------------------------------|---------------------------------|
A|---------------------------------|---------------------------------|
E|---------------------------------|---------------------------------|

Verse 1 :
G|---------------------------------|---------------------------------|
D|9--------------------------------|7--------------------------------|
A|---------------------------------|---------------------------------|
E|---------------------------------|---------------------------------|

G|---------------------------------|---------------------------------|
D|6--------------------------------|4--------------------------------|
A|---------------------------------|---------------------------------|
E|---------------------------------|---------------------------------|

G|---------------------------------|---------------------------------|
D|---------------------------------|---------------------------------|
A|2---2-------2---2----------------|---------------------------------|
E|---------------------------------|5---5-------5---5----------------|

G|---------------------------------|---------------------------------|
D|---------------------------------|---------------------------------|
A|---------------------------------|---------------------------------|
E|4-----------4---4----------------|2-----/-7------------------------|

G|---------------------------------|---------------------------------|
D|---------------------------------|---------------------------------|
A|7-----------7---7----------------|7-----------7---7----------------|
E|---------------------------------|---------------------------------|

G|----------------9----------------|---------------------------------|
D|------------------------9--------|---------------------------------|
A|7-----------7--------------------|7-----------7---7-----------\----|
E|---------------------------------|---------------------------------|

G|---------------------------------|---------------------------------|
D|---------------------------------|---------------------------------|
A|---------------------------------|---------------------------------|
E|5-----------5---5----------------|5-----------5---5----------------|

G|---------------------------------|---------------------------------|
D|---------------------------------|---------------------------------|
A|7-----------7---7-------------4--|7-----------7---7----------------|
E|----------------------------7----|---------------------------------|

G|---------------------------------|---------------------------------|
D|---------------------------------|---------------------------------|
A|------------9--------------------|------------9--------------------|
E|2--------/-9---------------------|2--------/-9---------------------|

G|---------------------------------|---------------------------------|
D|------------9-------9------------|---------------------------------|
A|2--------/-9------------9--------|2---2---2------------------------|
E|---------------------------------|---------------------------------|

Chorus :
G|---------------------------------|---------------------------------|
D|---------------------------------|---------------------------------|
A|---------------------------------|---------------------------------|
E|0-----------0---0-----------/----|4-----------4---4-------4--------|

G|---------------------------------|---------------------------------|
D|---------------------------------|------------------------4--------|
A|---------------------------------|2-----------2---2----------------|
E|5-----------5---5-------5--------|---------------------------------|

G|---------------------------------|---------------------------------|
D|---------------------------------|---------------------------------|
A|2-----------2---2----------------|---------------------------------|
E|---------------------------------|5-----------5-0-5-------5--------|

G|---------------------------------|---------------------------------|
D|6-----------6---6-------6--------|4--------------------------------|
A|--------------6------------------|----------------2----------------|
E|---------------------------------|---------------------------------|

G|---------------------------------|-----------------------|
D|---------------------------------|-----------------------|*6 instead of 8
A|---------------------------------|-----------------------|
E|0---------------4-------5--------|-----------------------|

G|---------------------------------|-----------------------|
D|---------------------------------|-----------------------|*6 instead of 8
A|---------------------------------|-----------------------|
E|0---------------4-------5--------|-----------------------|

Interlude :
G|---------------------------------|---------------------------------|
D|---------------------------------|---------------------------------|
A|3-----------3---3----------------|3-----------3---3----------------|
E|---------------------------------|---------------------------------|

G|---------------------------------|---------------------------------|
D|---------------------------------|---------------------------------|
A|3-----------3---3----------------|3--------------------------------|
E|---------------------------------|--------3------------------------|

Verse 2 :
G|---------------------------------|---------------------------------|
D|---------------------------------|---------------------------------|
A|---------------------------------|---------------------------------|
E|1---1-------1---1----------------|1-----------1---1-------1--------|

G|---------------------------------|---------------------------------|
D|---------------------------------|---------------------------------|
A|---------------------------------|------------------------0--------|
E|1-----------1---1-------1--------|1-----------1---1----------------|

G|---------------------------------|---------------------------------|
D|---------------------------------|---------------------------------|
A|1-----------1---1----------------|1-----------1---1----------------|
E|---------------------------------|---------------------------------|

G|---------------------------------|---------------------------------|
D|---------------------------------|---------------------------------|
A|---------------------------------|7-------5-------3-------0--------|
E|1-----------1---1-------1--------|---------------------------------|

G|---------------------------------|---------------------------------|
D|---------------------------------|---------------------------------|
A|------------10-------------------|------------10-------------------|
E|3-------/-10---------------------|3-------/-10---------------------|

G|---------------------------------|---------------------------------|
D|------------10------10-----------|---------------------------------|
A|3-------/-10------------10-------|3---3---3------------------------|
E|---------------------------------|---------------------------------|

Chorus :
G|---------------------------------|---------------------------------|
D|---------------------------------|---------------------------------|
A|---------------------------------|---------------------------------|
E|1-----------1---1-----------/----|5-----------5---5-------5--------|

G|---------------------------------|---------------------------------|
D|---------------------------------|---------------------------------|
A|---------------------------------|3-----------3---3---3---3--------|
E|6-----------6---6----------------|----------------------------3----|

G|---------------------------------|---------------------------------|
D|---------------------------------|---------------------------------|
A|3-----------3---3-------3---\----|1-----------1---1-------1--------|
E|---------------------------------|---------------------------------|

G|---------------------------------|---------------------------------|
D|---------------------------------|5-----------5--------------------|
A|0-----------0---0-------0--------|----------------3-------3--------|
E|---------------------------------|---------------------------------|

G|---------------------------------|---------------------------------|
D|---------------------------------|---------------------------------|
A|---------------------------------|---------------------------------|
E|1-----------1---1----------------|5-----------5---5-------5--------|

G|---------------------------------|---------------------------------|
D|---------------------------------|---------------------------------|
A|---------------------------------|3-----------3---3---3---3--------|
E|6-----------6---6----------------|----------------------------3----|

G|---------------------------------|---------------------------------|
D|---------------------------------|---------------------------------|
A|3-----------3---3-------3---\----|1-----------1---1-------1--------|
E|---------------------------------|---------------------------------|

G|---------------------------------|---------------------------------|
D|---------------------------------|5--------------------------------|
A|0-----------0---0-------0--------|----------------3---3---3--------|
E|---------------------------------|---------------------------------|

G|---------------------------------|-----------------------|
D|---------------------------------|-----------------------|*6 instead of 8
A|----------------0-------1--------|-----------------------|
E|1--------------------------------|-----------------------|

G|---------------------------------|-----------------------|
D|---------------------------------|-----------------------|*6 instead of 8
A|----------------0-------1--------|-----------------------|
E|1--------------------------------|-----------------------|

G|---------------------------------|-----------------------|
D|---------------------------------|-----------------------|*6 instead of 8
A|----------------0-------1--------|-----------------------|
E|1--------------------------------|-----------------------|


************************************
|
| /   Slide up
| \   Slide down

************************************
Suggest correction
Creating personal tab
Creating personal tab
You can edit any tab online and save it as your Personal.

You can edit, replace or remove any tab part or add personal notes – all changes will be seen only by you.

Personal tabs can be accessed anytime from any device, even offline.
Learn more »
Give kudos to tab author, rate the tab!
1 2 3 4 5
comments
print report bad tab
guest
You may want to rate the tab now too:
select rating
Wanna post a correction for this tab? Suggest correction