Oops, an error
Loading. Please wait.

Too Much Rain Bass Tab

28 views 1 this week
no commentswrite comment
1 2 3 4 5
3 more votes to show rating
add to favorites
launch autoscroll
font size
0
reset
guitar tuner
Autoscroll
slow
fast
+/-
esc
set tempo
stop
Help us to improve Ultimate-Guitar.com Take our survey!
×
G|12---------------------------12--|9----------------------------9---|
D|---------------------------------|---------------------------------|
A|---------------------------------|---------------------------------|
E|---------------------------------|---------------------------------|

G|---------------------------------|--------7-------7-------7--------|
D|9--------------------------------|----9-------9-------9-------9----|
A|---------------------------------|---------------------------------|
E|---------------------------------|---------------------------------|

G|---------------------------------|---------------------------------|
D|---------------------------------|---------------------------------|
A|10-------------------------------|---------------------------------|
E|---------------------------------|---------------------------------|

G|---------------------------------|--------7-------7-------7--------|
D|9--------------------------------|----9-------9-------9-------9----|
A|---------------------------------|---------------------------------|
E|---------------------------------|---------------------------------|

G|---------------------------------|9------------------------9-/-11--|
D|---------------------------------|---------------------------------|
A|10-------------------------------|---------------------------------|
E|---------------------------------|---------------------------------|
  Laugh                   when your eyes                     are 
G|---------------------------------|---------------------------------|
D|9--------------------------------|9--------------------------------|
A|---------------------------------|---------------------------------|
E|---------------------------------|---------------------------------|
  burning
G|---------------------------------|---------------------------------|
D|---------------------------------|---------------------------------|
A|8--------------------------------|7--------------------------------|
E|---------------------------------|---------------------------------|
  Smile                   when your heart     is     filled       with
G|---------------------------------|---------------------------------|
D|---------------------------------|---------------------------------|
A|0--------------------------------|5--------------------------------|
E|---------------------------------|---------------------------------|
  pain
G|---------------------------------|---------------------------------|
D|9--------------------------------|---------------------------------|
A|---------------------------------|----------------5----------------|
E|---------------------------------|7--------------------------------|
  Sigh                    as  you   brush       a - way your 
G|---------------------------------|---------------------------------|
D|---------------------------------|---------------------------------|
A|7----------------------------5---|7--------------------------------|
E|---------------------------------|---------------------------------|
  sorrow                                                 Make a 
G|---------------------------------|---------------------------------|
D|---------------------------------|---------------------------------|
A|0--------------------------------|---------------------------------|
E|---------------------------------|1--------------------------------|
  vow                    that it's  not         going  to  happen
G|---------------------------------|---------------------------------|
D|---------------------------------|---------------------------------|
A|0--------------------------------|5--------------------------------|
E|---------------------------------|---------------------------------|
  again                             It's            not 
G|-----------------------------------|
D|-----------------------------------|
A|/10---10---10---10---10---10---10--| A little break
E|-----------------------------------|
  right

1:02
G|---------------------------------|---------------------------------|
D|---------------------------------|---------------------------------|
A|5---------------3----------------|---------------------------------|
E|---------------------------------|3--------------------------------|

G|---------------------------------|---------------------------------|
D|---------------------------------|---------------------------------|
A|5---------------3----------------|/10------------------------------|
E|---------------------------------|---------------------------------|
                                    You                       know the
G|/7------------------/9-----------|---------------------------------|
D|---------------------------------|9--------------------------------|
A|---------------------------------|---------------------------------|
E|---------------------------------|---------------------------------|
  wheels              keep          turning
G|--------7-------7-------7--------|---------------------------------|
D|----9-------9-------9-------9----|---------------------------------|
A|---------------------------------|8--------------------------------|
E|---------------------------------|---------------------------------|
                                    Why                     do the 
G|---------------------------------|---------------------------------|
D|---------------------------------|---------------------------------|
A|7--------------------------------|0--------------------------------|
E|---------------------------------|---------------------------------|
tears             run down your     face
G|---------------------------------|---------------------------------|
D|---------------------------------|---------------------------------|
A|5--------------------------------|---------------------------------|
E|---------------------------------|7--------------------------------|
                                    We                   used to
G|---------------------------------|---------------------------------|
D|---------------------------------|---------------------------------|
A|----------------5----------------|7----------------------------5---|
E|7--------------------------------|---------------------------------|
  hide            away    our     f-eel-ings
G|---------------------------------|---------------------------------|
D|---------------------------------|---------------------------------|
A|7--------------------------------|0--------------------------------|
E|---------------------------------|---------------------------------|
                            But for now                        tell
G|---------------------------------|---------------------------------|
D|---------------------------------|---------------------------------|
A|---------------------------------|0--------------------------------|
E|1--------------------------------|---------------------------------|
  yourself          it won't happen again
G|---------------------------------|---------------------------------|
D|---------------------------------|---------------------------------|
A|5--------------------------------|/10------------------------------|
E|---------------------------------|---------------------------------|
  It's            not               right
G|---------------------------------|12-------------------------------|
D|12-------------------------------|---------------------------------|
A|---------------------------------|---------------------------------|
E|---------------------------------|---------------------------------|
  In             one                life
G|---------------------------------|---------------------------------|
D|10/12----------------------------|---------------------------------|
A|---------------------------------|5--------------------------------|
E|---------------------------------|---------------------------------|
  Too                               Much
G|-----------------------------10/-|12---10/12---12---12---12-------12\-|
D|5--------------------------------|------------------------------------|
A|---------------------------------|------------------------------------|
E|---------------------------------|------------------------------------|
  Rain                                                               It's
G|---------------------------------|---------------------------------|
D|---------------------------------|7--------------------------------|
A|3--------------------------------|---------------------------------|
E|---------------------------------|---------------------------------|
  too                               much             for anyone
G|---------------------------------|---------------------------------|
D|---------------------------------|7------------------------5---0---|
A|3--------------------------------|---------------------------------|
E|---------------------------------|---------------------------------|
  too                               hard             for anyone
G|---------------------------------|---------------------------------|
D|---------------------------------|---------------------------------|
A|3--------------------------------|0--------------------------------|
E|---------------------------------|---------------------------------|
  Who                               wants                  a  happy and
G|---------------------------------|---------------------------------|
D|---------------------------------|---------------------------------|
A|---------------------------------|---------------------------------|
E|0---------------1----------------|----------------1----------------|
  peaceful        life                              you've got to 
G|---------------------------------|---------------------------------|
D|---------------------------------|---------------------------------|
A|3--------------------------------|---------------------------------|
E|---------------------------------|3--------------------------------|
  learn        to                   laugh
G|/7----------------------/9-------|---------------------------------|
D|---------------------------------|9---------------9----------------|
A|---------------------------------|---------------------------------|
E|---------------------------------|---------------------------------|

G|--------7-------7-------7--------|---------------------------------|
D|----9-------9-------9-------9----|---------------------------------|
A|---------------------------------|8--------------------------------|
E|---------------------------------|---------------------------------|
                                    Smile                   when you're
G|---------------------------------|-------------------------9---7---|
D|---------------------------------|/7-------------------------------|
A|7--------------------------------|---------------------------------|
E|---------------------------------|---------------------------------|
  spinning                round and round
G|---------------------------------|---------------------------------|
D|---------------------------------|---------------------------------|
A|5----------------------------5---|---------------------------------|
E|---------------------------------|7--------------------------------|
                                    Sigh                      as you
G|---------------------------------|---------------------------------|
D|---------------------------------|---------------------------------|
A|----------------5----------------|7--------------------------------|
E|7--------------------------------|---------------------------------|
  think           about             tomorow
G|---------------------------------|---------------------------------|
D|---------------------------------|---------------------------------|
A|---------------------------------|---------------------------------|
E|0---------------3----------------|5--------------------------------|
                    Make     a      vow                     that you're
G|---------------------------------|---------------------------------|
D|---------------------------------|/7---7---7---7---7---7---7---7---|
A|---------------------------------|---------------------------------|
E|1--------------------------------|---------------------------------|
  going        to      be   happy   again
G|---------------------------------|---------------------------------|
D|---------------------------------|5--------------------------------|
A|5--------------------------------|---------------------------------|
E|---------------------------------|---------------------------------|
 It's             all               right       
G|---------------------------------|12-------------------------------|
D|12-------------------------------|---------------------------------|
A|---------------------------------|---------------------------------|
E|---------------------------------|---------------------------------|
  In           your                 life
G|---------------------------------|---------------------------------|
D|12-------------------------------|---------------------------------|
A|---------------------------------|5--------------------------------|
E|---------------------------------|---------------------------------|
  No                                more
G|---------------------------------|---------------------------------|
D|5--------------------------------|5---5---5---5---5---3---2---0----|
A|---------------------------------|---------------------------------|
E|---------------------------------|---------------------------------|
  rain                                                          It's
G|---------------------------------|---------------------------------|
D|---------------------------------|7--------------------------------|
A|3--------------------------------|---------------------------------|
E|---------------------------------|---------------------------------|
  too                               much                  for anyone
G|---------------------------------|---------------------------------|
D|---------------------------------|7--------------------------------|
A|3--------------------------------|---------------------------------|
E|---------------------------------|---------------------------------|
  too                               hard                  for anyone
G|---------------------------------|---------------------------------|
D|---------------------------------|7--------------------------------|
A|3--------------------------------|---------------------------------|
E|---------------------------------|---------------------------------|
  Who                               wants           a happy and
G|---------------------------------|---------------------------------|
D|---------------------------------|---------------------------------|
A|---------------------------------|---------------------------------|
E|0---------------1----------------|----------------1----------------|
  peaceful        life                              you've got to 
G|---------------------------------|---------------------------------|
D|---------------------------------|---------------------------------|
A|3--------------------------------|---------------------------------|
E|----------------3----------------|---------------------------------|
  learn     to    laugh
Suggest correction
Give kudos to tab author, rate the tab!
1 2 3 4 5
comments
print report bad tab
guest
You may want to rate the tab now too:
select rating
Wanna post a correction for this tab? Suggest correction