Oops, an error
Loading. Please wait.

Try Not To Cry Bass Tab

7 views 3 this week
no commentswrite comment
1 2 3 4 5
3 more votes to show rating
add to favorites
launch autoscroll
font size
0
reset
guitar tuner
Autoscroll
slow
fast
+/-
esc
set tempo
stop
Help us to improve Ultimate-Guitar.com Take our survey!
×
Author
Difficulty
intermediate
00:16
Chorus :
G|---------------------------------|---------------------------------|
D|---------------------------------|---------------------------------|
A|5---------------3----------------|----------------------------3----|
E|----------------------------5----|------------5---5----------------|

G|---------------------------------|---------------------------------|
D|---------------------------------|---------------------------------|
A|5---------------3----------------|----------------------------3----|
E|----------------------------5----|------------5---5----------------|

G|---------------------------------|---------------------------------|
D|---------------------------------|---------------------------------|
A|5---------------3----------------|----------------3----------------|
E|----------------------------5----|----------------------------0----|

G|---------------------------------|---------------------------------|
D|---------------------------------|---------------------------------|
A|---------------------------------|---------------------------------|
E|0---0-------0---0---0-------0----|0---0-------0---0---0------------|

G|---------------------------------|---------------------------------|
D|---------------------------------|---------------------------------|
A|5---------------3----------------|----------------------------3----|
E|----------------------------5----|------------5---5----------------|

G|---------------------------------|---------------------------------|
D|---------------------------------|---------------------------------|
A|5---------------3----------------|----------------------------3----|
E|----------------------------5----|------------5---5----------------|

G|---------------------------------|---------------------------------|
D|---------------------------------|---------------------------------|
A|5---------------3----------------|----------------3----------------|
E|----------------------------5----|----------------------------0----|

G|---------------------------------|---------------------------------|
D|---------------------------------|------------------------------/--|
A|---------------------------------|---------------------------------|
E|0---0-------0---0---0-------0----|0--------------------------------|

Verse :
G|---------------------------------|---------------------------------|
D|7---------------5----------------|7---------------5-------7--------|
A|------------7--------------------|------------7-------7------------|
E|---------------------------------|---------------------------------|

G|---------------------------------|---------------------------------|
D|7---------------5----------------|7---------------5-------7--------|
A|------------7--------------------|------------7-------7------------|
E|---------------------------------|---------------------------------|

G|---------------------------------|---------------------------------|
D|7---------------5----------------|7---------------5-------7--------|
A|------------7--------------------|------------7-------7------------|
E|---------------------------------|---------------------------------|

G|---------------------------------|---------------------------------|
D|7---------------5----------------|7---------------5-------5--------|
A|------------7--------------------|------------7-------7------------|
E|---------------------------------|---------------------------------|

Chorus :
G|---------------------------------|---------------------------------|
D|---------------------------------|---------------------------------|
A|5---------------3----------------|----------------------------3----|
E|----------------------------5----|------------5---5----------------|

G|---------------------------------|---------------------------------|
D|---------------------------------|---------------------------------|
A|5---------------3----------------|----------------------------3----|
E|----------------------------5----|------------5---5----------------|

G|---------------------------------|---------------------------------|
D|---------------------------------|---------------------------------|
A|5---------------3----------------|----------------3----------------|
E|----------------------------5----|----------------------------0----|

G|---------------------------------|---------------------------------|
D|---------------------------------|---------------------------------|
A|---------------------------------|----------------5----------------|
E|0---0-------0---0---0-------0----|0---0---------------8---7---5----|

G|---------------------------------|---------------------------------|
D|---------------------------------|---------------------------------|
A|5---------------3----------------|----------------------------3----|
E|----------------------------5----|------------5---5----------------|

G|---------------------------------|---------------------------------|
D|---------------------------------|---------------------------------|
A|5---------------3----------------|----------------------------3----|
E|----------------------------5----|------------5---5----------------|

G|---------------------------------|---------------------------------|
D|---------------------------------|---------------------------------|
A|5---------------3----------------|----------------3----------------|
E|----------------------------5----|----------------------------0----|

G|---------------------------------|---------------------------------|
D|---------------------------------|------------------------------/--|
A|---------------------------------|---------------------------------|
E|0---0-------0---0---0-------0----|0--------------------------------|

Solo :
G|---------------------------------|---------------------------------|
D|7---------------5----------------|7---------------5-------7--------|
A|------------7--------------------|------------7-------7------------|
E|---------------------------------|---------------------------------|

G|---------------------------------|---------------------------------|
D|7---------------5----------------|7---------------5-------7--------|
A|------------7--------------------|------------7-------7------------|
E|---------------------------------|---------------------------------|

G|---------------------------------|---------------------------------|
D|7---------------5----------------|7---------------5-------7--------|
A|------------7--------------------|------------7-------7------------|
E|---------------------------------|---------------------------------|

G|---------------------------------|---------------------------------|
D|7---------------5----------------|7---------------5-------5--------|
A|------------7--------------------|------------7-------7------------|
E|---------------------------------|---------------------------------|

Chorus :
G|---------------------------------|---------------------------------|
D|---------------------------------|---------------------------------|
A|5---------------3----------------|----------------------------3----|
E|----------------------------5----|------------5---5----------------|

G|---------------------------------|---------------------------------|
D|---------------------------------|---------------------------------|
A|5---------------3----------------|----------------------------3----|
E|----------------------------5----|------------5---5----------------|

G|---------------------------------|---------------------------------|
D|---------------------------------|---------------------------------|
A|5---------------3----------------|----------------3----------------|
E|----------------------------5----|----------------------------0----|

G|---------------------------------|---------------------------------|
D|---------------------------------|---------------------------------|
A|---------------------------------|---------------------------------|
E|0---0-------0---0---0-------0----|0---0-------0---0---0------------|

G|---------------------------------|---------------------------------|
D|---------------------------------|---------------------------------|
A|5---------------3----------------|----------------------------3----|
E|----------------------------5----|------------5---5----------------|

G|---------------------------------|---------------------------------|
D|---------------------------------|---------------------------------|
A|5---------------3----------------|----------------------------3----|
E|----------------------------5----|------------5---5----------------|

G|---------------------------------|---------------------------------|
D|---------------------------------|---------------------------------|
A|5---------------3----------------|----------------3----------------|
E|----------------------------5----|----------------------------0----|

G|---------------------------------|---------------------------------|
D|---------------------------------|---------------------------------|
A|---------------------------------|7---6---3---5---2---0------------|
E|0---0-------0---0---0-------0----|------------------------3--------|

Outro : (repeat
G|---------------------------------|---------------------------------|
D|7---------------5----------------|7---------------5-------7--------|
A|------------7--------------------|------------7-------7------------|
E|---------------------------------|---------------------------------|
Suggest correction
Give kudos to tab author, rate the tab!
1 2 3 4 5
comments
print report bad tab
guest
You may want to rate the tab now too:
select rating
Wanna post a correction for this tab? Suggest correction