Oops, an error
Loading. Please wait.

Turned Out bass

19 views 1 this week
no commentswrite comment
1 2 3 4 5
3 more votes to show rating
add to favorites
×
Save as Personal and add changes to this tab that will be seen only by you. Learn more ›
×
You can save this tab as Personal to edit and correct it or add notes. All changes will be seen only by you. Learn more »
launch autoscroll
font size
0
reset
guitar tuner
edit
Autoscroll
slow
fast
+/-
esc
set tempo
stop
Author
Difficulty
[Intro]
G|---------------------------------|---------------------------------|
D|----3---3------------------------|----5---5------------------------|
A|----------------3----------------|----------------6-------\--------|
E|---------------------------------|---------------------------------|

G|---------------------------------|---------------------------------|
D|---------------------------------|---------------------------------|
A|----6---6---\---------------3----|---------------------------------|
E|----------------3-------3--------|---------------------------------|

[Verse 1]
G|---------------------------------|---------------------------------|
D|----------------------------1----|2---2---2---2---2---2---2--------|
A|3-------3---3---3---3---3--------|---------------------------------|
E|---------------------------------|---------------------------------|

G|---------------------------------|---------------------------------|
D|---------------------------------|---------------------------------|
A|1---1---1---1---1----------------|----------------------------0----|
E|--------------------0---3--------|3-------3---3---3-------3--------|

G|---------------------------------|---------------------------------|
D|------------------------0---1----|2---2---2---2---2---2---2---0----|
A|3-------3---3---3---3------------|---------------------------------|
E|---------------------------------|---------------------------------|

G|---------------------------------|---------------------------------|
D|---------------------------------|---------------------------------|
A|1---1---0---0--------------------|---------------------------------|
E|----------------3---3---1---1----|3-------3---3---3-------3---3----|

G|---------------------------------|
D|---------------------------------|
A|----------------2-/-3---5---\----|
E|3-------3---3--------------------|

[Chorus]
G|---------------------------------|---------------------------------|
D|---------------------------------|---------------------------------|
A|---------------------------------|3---3---3---3---3---3---3---3----|
E|1---1---1---1---1---1---1---1----|---------------------------------|

G|---------------------------------|---------------------------------|
D|---------------------------------|---------------------------------|
A|---------------------------------|3---3---3---3---3---3---3--------|
E|1---1---1---1---1---1---1---1----|----------------------------0----|

G|---------------------------------|---------------------------------|
D|---------------------------------|---------------------------------|
A|---------------------------------|3-------3------------------------|
E|1---1---1---1---1---1---1---1----|----------------5-------5--------|

G|---------------------------------|---------------------------------|
D|---------------------------------|---------------------------------|
A|7-------7-------8-------8---\----|1-------1---1---1---1---1---1----|
E|---------------------------------|---------------------------------|

G|---------------------------------|---------------------------------|
D|---------------------------------|---------------------------------|
A|1---1-----------------------1----|3---3-----------------------0----|
E|--------3-------1-------1--------|--------5-------3-------3--------|

G|---------------------------------|---------------------------------|
D|---------------------------------|---------------------------------|
A|1---1-----------------------0----|3-----------------------3---\----|
E|--------3-------1-------1--------|--------5-------5---5------------|

G|---------------------------------|---------------------------------|
D|---------------------------------|---------------------------------|
A|1---1-----------------------0----|3--------------------------------|
E|--------3-------1-------1--------|--------5---3---3-------3--------|

G|---------------------------------|---------------------------------|
D|---------------------------------|---------------------------------|
A|1---------------------------1----|3---3-------------------3--------|
E|--------3-------1-------1--------|--------5---5---3---3------------|

G|---------------------------------|------------------------5--------|
D|---------------------------------|------------------/-5-------5----|
A|1---1---1---1---1---1---1---2----|3---3---3---3---3----------------|
E|---------------------------------|---------------------------------|

G|---------------------------------|5---5-----------5---5------------|
D|---------------------------------|--------5---5-----------5---5----|
A|1-------1---1---1-------1--------|---------------------------------|
E|---------------------------------|---------------------------------|

[Interlude]
G|---------------------------------|---------------------------------|
D|----3---3------------------------|----5---5------------------------|
A|----------------3----------------|----------------6-------\--------|
E|---------------------------------|---------------------------------|

G|---------------------------------|---------------------------------|
D|---------------------------------|---------------------------------|
A|----6---6---\---------------3----|---------------------------------|
E|----------------3-------3--------|--------0---0---1---1---3---3----|

[Verse 2]
G|---------------------------------|---------------------------------|
D|------------------------0---1----|2---2---2---2---2---2---2--------|
A|3---3---3---3---3---3------------|---------------------------------|
E|---------------------------------|---------------------------------|

G|---------------------------------|---------------------------------|
D|---------------------------------|---------------------------------|
A|1---1---1---1---1----------------|----------------------------0----|
E|--------------------0---3--------|3-------3---3---3-------3--------|

G|---------------------------------|---------------------------------|
D|------------------------0---1----|2---2---2---2---2---2---2--------|
A|3-------3---3---3---3------------|---------------------------------|
E|---------------------------------|---------------------------------|

G|---------------------------------|---------------------------------|
D|---------------------------------|---------------------------------|
A|1---1---1---1---1---1---0---0----|---------------------------------|
E|---------------------------------|3-------3---3---3-------3---3----|

G|---------------------------------|
D|------------------------0---2----|
A|--------0---0---2---2------------|
E|3--------------------------------|

[Verse 3] 
(piano)
G|---------------------------------|---------------------------------|
D|---------------------------------|---------------------------------|
A|---------------------------------|---------------------------------|
E|3--------------------------------|---------------------------------|

G|---------------------------------|---------------------------------|
D|--------------------7h9-7---\----|5---------------------------5----|
A|5------------/--9----------------|---------------------------------|
E|---------------------------------|---------------------------------|

G|---------------------------------|---------------------------------|
D|---------------------------------|---------------------------------|
A|5--------------------------------|---------------------------------|
E|------------0---2-------5--------|3--------------------------------|

G|---------------------------------|---------------------------------|
D|---------------------------------|4-----------2-/-5----------------|
A|5-----------4---2----------------|---------------------------------|
E|---------------------------------|---------------------------------|

G|---------------------------------|---------------------------------|
D|---------------------------------|---------------------------------|
A|3--------------------------------|---------------------------------|
E|---------------------------------|1--------------------------------|

[Chorus]
G|---------------------------------|---------------------------------|
D|---------------------------------|---------------------------------|
A|1---1-----------------------1----|3---3---------------0---3---\----|
E|--------3-------1-------1--------|--------5-------3----------------|

G|---------------------------------|---------------------------------|
D|---------------------------------|---------------------------------|
A|1---1-----------------------0----|3---3-------------------3---\----|
E|--------3-------1-------1--------|--------5---5---3---5------------|

G|---------------------------------|---------------------------------|
D|---------------------------------|---------------------------------|
A|1---1-----------------------0----|3-----------------------1---3----|
E|--------3-------1-------1--------|--------1-------2----------------|

G|---------------------------------|---------------------------------|
D|---------------------------------|---------------------------------|
A|1---------------------------1----|3---3-------------------3--------|
E|--------3-------1-------1--------|--------5---5---3---3------------|

G|---------------------------------|------------------------5--------|
D|---------------------------------|--------5-----------5-------5----|
A|1---1---1---1---1---1---1---2----|3---3-------3---3----------------|
E|---------------------------------|---------------------------------|

G|---------------------------------|------------------------5---\----|
D|---------------------------------|--------3---3---5---5------------|
A|1---1-----------1-------1---2----|3---3----------------------------|
E|--------1------------------------|---------------------------------|

G|---------------------------------|------------------------5---\----|
D|---------------------------------|---------------------------------|
A|1---1-----------1-------1---2----|3-------3---3---3----------------|
E|--------1------------------------|---------------------------------|

G|---------------------------------|---------------------------------|
D|---------------------------------|---------------------------------|
A|1---1-----------1---1---1---2----|3---------------3---3------------|
E|--------1------------------------|--------3---3-----------3---3----|

G|---------------------------------|------------------------5---\----|
D|---------------------------------|--------5-----------5------------|
A|1-----------1---1-------1---2----|3---3-------3---3----------------|
E|---------------------------------|---------------------------------|

G|---------------------------------|
D|---------------------------------|
A|1-----------1---1-----------1----|
E|---------------------------------|

[Interlude]
G|---------------------------------|---------------------------------|
D|---------------------------------|----5---5------------------------|
A|------------3---3---3---\--------|----------------6---6---6--------|
E|1---1---1------------------------|------------6--------------------|

G|---------------------------------|---------------------------------|
D|---------------------------------|---------------------------------|
A|----6---6-------------------3----|---------------------------------|
E|----------------3----------------|---------------------------------|

G|---------------------------------|---------------------------------|
D|---------------------------------|---------------------------------|
A|---------------------------------|------------------------/---10---|
E|---------------------------------|---------------------------------|

[Outro] 
(after the break)
G|------------10-------------------|----10---------------------------|
D|10------10-----------------------|8-----------10-------------------|
A|----10---------------------------|---------------------------------|
E|---------------------------------|---------------------------------|

G|----9----------------------------|---------------------------------|
D|10------10-----------------------|---------------------------------|
A|------------8*--8*--8*-----------|---------------------------------|
E|------------6---6---6------------|---------------------------------|


************************************

| \  Slide down
| /  Slide up
| h  Hammer-on
| *  Natural harmonic

************************************

            
            
Suggest correction
Creating personal tab
Creating personal tab
You can edit any tab online and save it as your Personal.

You can edit, replace or remove any tab part or add personal notes – all changes will be seen only by you.

Personal tabs can be accessed anytime from any device, even offline.
Learn more »
Give kudos to tab author, rate the tab!
1 2 3 4 5
comments
print report bad tab
guest
You may want to rate the tab now too:
select rating
Wanna post a correction for this tab? Suggest correction