Oops, an error
Loading. Please wait.

Twenty Flight Rock Bass Tab

28 views 3 this week
no commentswrite comment
1 2 3 4 5
3 more votes to show rating
add to favorites
launch autoscroll
font size
0
reset
guitar tuner
Autoscroll
slow
fast
+/-
esc
set tempo
stop
Help us to improve Ultimate-Guitar.com Take our survey!
×
Tripping The Live Fantastic version
Great bass solo on it, enjoy :)

Intro :
G|---------------------------------|---------------------------------|
D|---------------------------------|---------------------------------|
A|----------------4-----5h7--------|----------------4-----5h7--------|
E|5--------------------------------|5--------------------------------|

G|---------------------------------|---------------------------------|
D|---------------------------------|---------------------------------|
A|----------------4-----5h7--------|----------------4-----5h7--------|
E|5--------------------------------|5--------------------------------|

Verse 1 :
G|---------------------------------|---------------------------------|
D|---------------------------------|---------------------------------|
A|----------------4-----5h7--------|----------------4-----5h7--------|
E|5--------------------------------|5--------------------------------|

G|---------------------------------|---------------------------------|
D|---------------------------------|---------------------------------|
A|----------------4-----5h7--------|----------------4-----5h7--------|
E|5--------------------------------|5--------------------------------|

G|---------------------------------|---------------------------------|
D|----------------4-----5h7--------|----------------4-----5h7--------|
A|5--------------------------------|5--------------------------------|
E|---------------------------------|---------------------------------|

G|---------------------------------|---------------------------------|
D|---------------------------------|---------------------------------|
A|---------------------------------|---------------------------------|
E|---------------------------------|---------------------------------|

G|---------------------------------|---------------------------------|
D|----------------6-----7h9--------|----------------6-----7h9--------|
A|7--------------------------------|7--------------------------------|
E|---------------------------------|---------------------------------|

G|---------------------------------|---------------------------------|
D|---------------------------------|--------4-------5-------6--------|
A|---------------------------------|---------------------------------|
E|---------------------------------|---------------------------------|

Chorus :
G|---------------------------------|---------------------------------|
D|------------------------4--------|7-------4------------------------|
A|--------4-------7----------------|----------------7-------4--------|
E|5--------------------------------|---------------------------------|

G|---------------------------------|---------------------------------|
D|7-----------------------4--------|7-------5-------4----------------|
A|--------4-------7----------------|------------------------7--------|
E|---------------------------------|---------------------------------|

G|---------------------------------|---------------------------------|
D|--------4-------5-------6--------|7-------5-------4----------------|
A|5--------------------------------|------------------------7--------|
E|---------------------------------|---------------------------------|

G|---------------------------------|---------------------------------|
D|------------------------4--------|7-------4------------------------|
A|--------4-------7----------------|----------------7-------4--------|
E|5--------------------------------|---------------------------------|

G|---------------------------------|---------------------------------|
D|--------6-------9-------6--------|--------4-------5-------6--------|
A|7--------------------------------|5--------------------------------|
E|---------------------------------|---------------------------------|

Interlude :
G|---------------------------------|---------------------------------|
D|---------------------------------|---------------------------------|
A|----------------4-----5h7--------|----------------4-----5h7--------|
E|5--------------------------------|5--------------------------------|

Verse 2 :
G|---------------------------------|---------------------------------|
D|---------------------------------|---------------------------------|
A|----------------4-----5h7--------|----------------4-----5h7--------|
E|5--------------------------------|5--------------------------------|

G|---------------------------------|---------------------------------|
D|---------------------------------|---------------------------------|
A|----------------4-----5h7--------|----------------4-----5h7--------|
E|5--------------------------------|5--------------------------------|

G|---------------------------------|---------------------------------|
D|----------------4-----5h7--------|----------------4-----5h7--------|
A|5--------------------------------|5--------------------------------|
E|---------------------------------|---------------------------------|

G|---------------------------------|---------------------------------|
D|---------------------------------|---------------------------------|
A|---------------------------------|---------------------------------|
E|---------------------------------|---------------------------------|

G|---------------------------------|---------------------------------|
D|---------------------------------|---------------------------------|
A|---------------------------------|---------------------------------|
E|0---------------4-----5h7--------|0---------------4-----5h7--------|

G|---------------------------------|---------------------------------|
D|---------------------------------|--------4-------5-------6--------|
A|---------------------------------|---------------------------------|
E|---------------------------------|---------------------------------|

Chorus :
G|---------------------------------|---------------------------------|
D|------------------------4--------|7-------4------------------------|
A|--------4-------7----------------|----------------7-------4--------|
E|5--------------------------------|---------------------------------|

G|---------------------------------|---------------------------------|
D|7-----------------------4--------|7-------5-------4----------------|
A|--------4-------7----------------|------------------------7--------|
E|---------------------------------|---------------------------------|

G|---------------------------------|---------------------------------|
D|--------4-------5-------6--------|7-------5-------4----------------|
A|5--------------------------------|------------------------7--------|
E|---------------------------------|---------------------------------|

G|---------------------------------|---------------------------------|
D|------------------------4--------|7-------4------------------------|
A|--------4-------7----------------|----------------7-------4--------|
E|5--------------------------------|---------------------------------|

G|---------------------------------|---------------------------------|
D|--------6-------9-------6--------|--------4-------5-------6--------|
A|7--------------------------------|5--------------------------------|
E|---------------------------------|---------------------------------|

G|---------------------------------|---------------------------------|
D|7-------4------------------------|---------------------------------|
A|----------------7-------4--------|7-------5-------4----------------|
E|---------------------------------|------------------------7--------|

Solo :
G|---------------------------------|---------------------------------|
D|---------------------------------|--------4-------5-------6--------|
A|--------4-------5-------6--------|7--------------------------------|
E|5--------------------------------|---------------------------------|

G|---------------------------------|---------------------------------|
D|7-------5-------4----------------|---------------------------------|
A|------------------------7--------|5-------4-------2-------2--------|
E|---------------------------------|---------------------------------|

G|---------------------------------|---------------------------------|
D|--------4-------5-------6---6----|7-------5-------4-------0---/----|
A|5--------------------------------|---------------------------------|
E|---------------------------------|---------------------------------|

G|----------------6-------7--------|6--------------------------------|
D|7-------9------------------------|--------9-------7-------9---/----|
A|---------------------------------|---------------------------------|
E|---------------------------------|---------------------------------|

G|---------------------------------|--------6------------------------|
D|11--11--11------9----------------|7---------------9-------8--------|
A|---------------------------------|---------------------------------|
E|---------------------------------|---------------------------------|

G|---------------------------------|---------------------------------|
D|7-------5-------4----------------|---------------------------------|
A|------------------------8--------|7-------5-------4----------------|
E|---------------------------------|------------------------7--------|

G|---------------------------------|---------------------------------|
D|---------------------------------|--------4-------5-------6--------|
A|--------4-------5-------6--------|7--------------------------------|
E|5--------------------------------|---------------------------------|

G|---------------------------------|---------------------------------|
D|7-------5-------4----------------|---------------------------------|
A|------------------------7--------|5-------4-------0-------4--------|
E|---------------------------------|---------------------------------|

G|---------------------------------|---------------------------------|
D|----------------4---4---4--------|5---5---5-------6---6---6--------|
A|5---5---5------------------------|---------------------------------|
E|---------------------------------|---------------------------------|

G|----------------6-------7--------|9---9---7-------6-------7--------|
D|7-------9------------------------|---------------------------------|
A|---------------------------------|---------------------------------|
E|---------------------------------|---------------------------------|

G|9---9---9---------------9--------|7--------------------------------|
D|---------------------------------|--------10--10--9-------8--------|
A|---------------------------------|---------------------------------|
E|----------------7----------------|---------------------------------|

G|---------------------------------|---------------------------------|
D|7-------5-------4----------------|---------------------------------|
A|------------------------8--------|7-------5-------4----------------|
E|---------------------------------|------------------------7--------|

Verse 3 :
G|---------------------------------|---------------------------------|
D|---------------------------------|---------------------------------|
A|----------------4-----5h7--------|----------------4-----5h7--------|
E|5--------------------------------|5--------------------------------|

G|---------------------------------|---------------------------------|
D|---------------------------------|---------------------------------|
A|----------------4-----5h7--------|----------------4-----5h7--------|
E|5--------------------------------|5--------------------------------|

G|---------------------------------|---------------------------------|
D|----------------4-----5h7--------|----------------4-----5h7--------|
A|5--------------------------------|5--------------------------------|
E|---------------------------------|---------------------------------|

G|---------------------------------|---------------------------------|
D|---------------------------------|---------------------------------|
A|---------------------------------|---------------------------------|
E|---------------------------------|---------------------------------|

G|---------------------------------|---------------------------------|
D|----------------6-----7h9--------|----------------6-----7h9--------|
A|7--------------------------------|7--------------------------------|
E|---------------------------------|---------------------------------|

G|---------------------------------|---------------------------------|
D|---------------------------------|--------4-------5-------6--------|
A|---------------------------------|---------------------------------|
E|---------------------------------|---------------------------------|

Chorus :
G|---------------------------------|---------------------------------|
D|------------------------4--------|7-------4------------------------|
A|--------4-------7----------------|----------------7-------4--------|
E|5--------------------------------|---------------------------------|

G|---------------------------------|---------------------------------|
D|7-----------------------4--------|7-------5-------4----------------|
A|--------4-------7----------------|------------------------7--------|
E|---------------------------------|---------------------------------|

G|---------------------------------|---------------------------------|
D|--------4-------5-------6--------|7-------5-------4----------------|
A|5--------------------------------|------------------------7--------|
E|---------------------------------|---------------------------------|

G|---------------------------------|---------------------------------|
D|------------------------4--------|7-------4------------------------|
A|--------4-------7----------------|----------------7-------4--------|
E|5--------------------------------|---------------------------------|

G|---------------------------------|---------------------------------|
D|--------6-------9-------6--------|--------4-------5-------6--------|
A|7--------------------------------|5--------------------------------|
E|---------------------------------|---------------------------------|

G|---------------------------------|---------------------------------|
D|7-------4------------------------|---------------------------------|
A|----------------7-------4--------|7-------5-------4----------------|
E|---------------------------------|------------------------7--------|

Solo :
G|---------------------------------|---------------------------------|
D|---------------------------------|--------4-------5-------6--------|
A|--------4-------5-------6--------|7--------------------------------|
E|5--------------------------------|---------------------------------|

G|---------------------------------|---------------------------------|
D|7-------5-------4----------------|---------------------------------|
A|------------------------7--------|--------4-------7-------4--------|
E|---------------------------------|5--------------------------------|

G|---------------------------------|---------------------------------|
D|--------4-------5-------6---6----|7-------5-------4----------------|
A|5--------------------------------|---------------------------------|
E|---------------------------------|---------------------------------|

G|---------------------------------|6---6---6-------7-------8--------|
D|7---7---7-------9---9---9--------|---------------------------------|
A|---------------------------------|---------------------------------|
E|---------------------------------|---------------------------------|

G|9-----------------------9--------|7--------------------------------|
D|---------------------------------|--------10--10--9-------8--------|
A|---------------------------------|---------------------------------|
E|----------------7----------------|---------------------------------|

G|---------------------------------|---------------------------------|
D|7-------5-------4----------------|---------------------------------|
A|------------------------8--------|7-------5-------4----------------|
E|---------------------------------|------------------------7--------|

Chorus :
G|---------------------------------|---------------------------------|
D|------------------------4--------|7---7---4------------------------|
A|--------4-------7----------------|----------------7-------4--------|
E|5--------------------------------|---------------------------------|

G|---------------------------------|---------------------------------|
D|------------------------4--------|7---7---5-------4----------------|
A|--------4-------7----------------|------------------------7--------|
E|5--------------------------------|---------------------------------|

G|---------------------------------|---------------------------------|
D|--------4-------5-------6--------|7-------5-------4----------------|
A|5--------------------------------|------------------------7--------|
E|---------------------------------|---------------------------------|

G|---------------------------------|---------------------------------|
D|------------------------4--------|7-------4------------------------|
A|--------4-------7----------------|----------------7-------4--------|
E|5--------------------------------|---------------------------------|

G|---------------------------------|---------------------------------|
D|--------6-------9-------6--------|--------4-------5-------6--------|
A|7--------------------------------|5--------------------------------|
E|---------------------------------|---------------------------------|

G|---------------------------------|---------------------------------|
D|----7---7-------5----------------|---------------------------------|
A|------------------------9--------|7-------5------------------------|
E|5--------------------------------|----------------5----------------|


***********************************
h = hammer on
/ = slide up
***********************************
Suggest correction
Give kudos to tab author, rate the tab!
1 2 3 4 5
comments
print report bad tab
guest
You may want to rate the tab now too:
select rating
Wanna post a correction for this tab? Suggest correction