Oops, an error
Loading. Please wait.

Twenty Flight Rock bass

version 2
version 2

Whole song

91 views 3 this week
no commentswrite comment
1 2 3 4 5
3 more votes to show rating
add to favorites
×
Save as Personal and add changes to this tab that will be seen only by you. Learn more ›
×
You can save this tab as Personal to edit and correct it or add notes. All changes will be seen only by you. Learn more »
launch autoscroll
font size
0
reset
guitar tuner
edit
Autoscroll
slow
fast
+/-
esc
set tempo
stop
Author
Difficulty
Version from Снова В СССР (1988)

[Intro]
G|---------------------------------|---------------------------------|
D|---------------------------------|---------------------------------|
A|------------/---4-------7--------|------------/---4-------7--------|
E|5--------------------------------|5--------------------------------|

G|---------------------------------|---------------------------------|
D|---------------------------------|---------------------------------|
A|------------/---4-------7--------|------------/---4-------7--------|
E|5--------------------------------|5--------------------------------|

[Verse]
G|---------------------------------|---------------------------------|
D|---------------------------------|---------------------------------|
A|------------/---4-------7--------|------------/---4-------7--------|
E|5--------------------------------|5--------------------------------|

G|---------------------------------|---------------------------------|
D|---------------------------------|---------------------------------|
A|------------/---4-------7--------|------------/---4-------7--------|
E|5--------------------------------|5--------------------------------|

G|---------------------------------|---------------------------------|
D|----------------4-------7--------|----------------4-------7--------|
A|5--------------------------------|5--------------------------------|
E|---------------------------------|---------------------------------|

G|---------------------------------|---------------------------------|
D|---------------------------------|---------------------------------|
A|---------------------------------|---------------------------------|
E|5--------------------------------|---------------------------------|

G|---------------------------------|---------------------------------|
D|---------------------------------|---------------------------------|
A|---------------------------------|---------------------------------|
E|0-----------3-/-4-------7--------|0-----------3-/-4-------7--------|

G|---------------------------------|---------------------------------|
D|---------------------------------|---------------------------------|
A|---------------------------------|---------------------------------|
E|5--------------------------------|---------------------------------|

[Chorus]
G|---------------------------------|---------------------------------|
D|------------------------4--------|7-------4------------------------|
A|--------4-------7----------------|----------------7-------4--------|
E|5--------------------------------|---------------------------------|

G|---------------------------------|---------------------------------|
D|------------------------4--------|7-------4------------------------|
A|--------4-------7----------------|----------------7-------4--------|
E|5--------------------------------|---------------------------------|

G|---------------------------------|---------------------------------|
D|--------4-------7-------4--------|--------4-------7-------4--------|
A|5--------------------------------|5--------------------------------|
E|---------------------------------|---------------------------------|

G|---------------------------------|---------------------------------|
D|---------------------------------|---------------------------------|
A|--------4-------7-------4--------|--------4-------5-------6--------|
E|5--------------------------------|5--------------------------------|

G|---------------------------------|---------------------------------|
D|--------6-------9-------6--------|--------4-------7-------4--------|
A|7--------------------------------|5--------------------------------|
E|---------------------------------|---------------------------------|

[Interlude]
G|---------------------------------|---------------------------------|
D|---------------------------------|---------------------------------|
A|----------------4-------7--------|----------------4-------7--------|
E|5--------------------------------|5--------------------------------|

[Verse]
G|---------------------------------|---------------------------------|
D|---------------------------------|---------------------------------|
A|----------------4-------7--------|------------/---4-------7--------|
E|5--------------------------------|5--------------------------------|

G|---------------------------------|---------------------------------|
D|---------------------------------|---------------------------------|
A|------------/---4-------7--------|------------/---4-------7--------|
E|5--------------------------------|5--------------------------------|

G|---------------------------------|---------------------------------|
D|----------------4-------7--------|----------------4-------7--------|
A|5--------------------------------|5--------------------------------|
E|---------------------------------|---------------------------------|

G|---------------------------------|---------------------------------|
D|---------------------------------|---------------------------------|
A|---------------------------------|---------------------------------|
E|5--------------------------------|---------------------------------|

G|---------------------------------|---------------------------------|
D|---------------------------------|---------------------------------|
A|---------------------------------|---------------------------------|
E|0-----------3-/-4-------7--------|0-----------3-/-4-------7--------|

G|---------------------------------|---------------------------------|
D|---------------------------------|---------------------------------|
A|---------------------------------|---------------------------------|
E|5--------------------------------|---------------------------------|

[Chorus]
G|---------------------------------|---------------------------------|
D|------------------------4--------|7-------4------------------------|
A|--------4-------7----------------|----------------7-------4--------|
E|5--------------------------------|---------------------------------|

G|---------------------------------|---------------------------------|
D|------------------------4--------|7-------4------------------------|
A|--------4-------7----------------|----------------7-------4--------|
E|5--------------------------------|---------------------------------|

G|---------------------------------|---------------------------------|
D|--------4-------7-------4--------|--------4-------7-------4--------|
A|5--------------------------------|5--------------------------------|
E|---------------------------------|---------------------------------|

G|---------------------------------|---------------------------------|
D|------------------------4--------|7-------4------------------------|
A|--------4-------7----------------|----------------7-------4--------|
E|5--------------------------------|---------------------------------|

G|---------------------------------|---------------------------------|
D|--------6-------9-------6--------|--------4-------7-------4--------|
A|7--------------------------------|5--------------------------------|
E|---------------------------------|---------------------------------|

G|---------------------------------|---------------------------------|
D|------------------------4--------|7-------4------------------------|
A|--------4-------7----------------|----------------7-------4--------|
E|5--------------------------------|---------------------------------|

[Solo]
G|---------------------------------|---------------------------------|
D|------------------------4--------|7-------4------------------------|
A|--------4-------7----------------|----------------7-------4--------|
E|5--------------------------------|---------------------------------|

G|---------------------------------|---------------------------------|
D|------------------------4--------|7-------5-------4----------------|
A|--------4-------7----------------|------------------------7--------|
E|5--------------------------------|---------------------------------|

G|---------------------------------|---------------------------------|
D|---------------------------------|---------------------------------|
A|5---\-----------0-------2--------|5--------------------------------|
E|--------2------------------------|--------2-------3-------4--------|

G|---------------------------------|---------------------------------|
D|------------------------4--------|7-------4------------------------|
A|--------4-------7----------------|----------------7-------4--------|
E|5--------------------------------|---------------------------------|

G|---------------------------------|---------------------------------|
D|--------6-------9-------6--------|--------6-------9-------6--------|
A|7--------------------------------|7--------------------------------|
E|---------------------------------|---------------------------------|

G|---------------------------------|---------------------------------|
D|---------------------------------|---------------------------------|
A|------------/---4-------7--------|------------/---4-------7--------|
E|5--------------------------------|5--------------------------------|

[Verse]
G|---------------------------------|---------------------------------|
D|---------------------------------|---------------------------------|
A|------------/---4-------7--------|------------/---4-------7--------|
E|5--------------------------------|5--------------------------------|

G|---------------------------------|---------------------------------|
D|---------------------------------|---------------------------------|
A|------------/---4-------7--------|------------/---4-------7--------|
E|5--------------------------------|5--------------------------------|

G|---------------------------------|---------------------------------|
D|----------------4-------7--------|----------------4-------7--------|
A|5--------------------------------|5--------------------------------|
E|---------------------------------|---------------------------------|

G|---------------------------------|---------------------------------|
D|---------------------------------|---------------------------------|
A|---------------------------------|---------------------------------|
E|5--------------------------------|---------------------------------|

G|---------------------------------|---------------------------------|
D|---------------------------------|---------------------------------|
A|---------------------------------|---------------------------------|
E|0---------------4-------7--------|0-----------3-/-4-------7--------|

G|---------------------------------|---------------------------------|
D|---------------------------------|---------------------------------|
A|---------------------------------|---------------------------------|
E|5--------------------------------|---------------------------------|

[Chorus]
G|---------------------------------|---------------------------------|
D|------------------------4--------|7-------4------------------------|
A|--------4-------7----------------|----------------7-------4--------|
E|5--------------------------------|---------------------------------|

G|---------------------------------|---------------------------------|
D|------------------------4--------|7-------4------------------------|
A|--------4-------7----------------|----------------7-------4--------|
E|5--------------------------------|---------------------------------|

G|---------------------------------|---------------------------------|
D|--------4-------7-------4--------|--------4-------7-------4--------|
A|5--------------------------------|5--------------------------------|
E|---------------------------------|---------------------------------|

G|---------------------------------|---------------------------------|
D|------------------------4--------|7-------4------------------------|
A|--------4-------7----------------|----------------7-------4--------|
E|5--------------------------------|---------------------------------|

G|---------------------------------|---------------------------------|
D|---------------------------------|---------------------------------|
A|7--------------------------------|5--------------------------------|
E|--------4-------7-------4--------|--------2-------5-------2--------|

G|---------------------------------|---------------------------------|
D|---------------------------------|---------------------------------|
A|------/-4-------7-------4--------|7-------7-------7-------7--------|
E|5--------------------------------|---------------------------------|

[Solo]
G|---------------------------------|---------------------------------|
D|------------------------4--------|7-------4------------------------|
A|--------4-------7----------------|----------------7-----2/4---7----|
E|5--------------------------------|---------------------------------|

G|---------------------------------|---------------------------------|
D|------------------------4--------|7-------4------------------------|
A|------3/4-------7----------------|----------------7-------4--------|
E|5--------------------------------|---------------------------------|

G|---------------------------------|---------------------------------|
D|---------------------------------|---------------------------------|
A|5-----------------------2--------|5--------------------------------|
E|--------2-------5----------------|--------2-------3-------4--------|

G|---------------------------------|---------------------------------|
D|------------------------4--------|7--------------------------------|
A|--------4-------7----------------|--------4-------5-------6--------|
E|5--------------------------------|---------------------------------|

G|---------------------------------|---------------------------------|
D|---------------------------------|---------------------------------|
A|7-------5-------4----------------|7--------------------------------|
E|------------------------7--------|--------2-------3-------4--------|

G|---------------------------------|---------------------------------|
D|---------------------------------|---------------------------------|
A|----------------4-------7--------|----------------4-------7--------|
E|5--------------------------------|5--------------------------------|

[Verse]
G|---------------------------------|---------------------------------|
D|---------------------------------|---------------------------------|
A|----------------4-------7--------|----------------4-------7--------|
E|5--------------------------------|5--------------------------------|

G|---------------------------------|---------------------------------|
D|---------------------------------|---------------------------------|
A|----------------4-------7--------|----------------4-------7---\----|
E|5--------------------------------|5--------------------------------|

G|---------------------------------|---------------------------------|
D|---------------------------------|---------------------------------|
A|5--------------------------------|5--------------------------------|
E|----------------2-------5--------|----------------2-------5--------|

G|---------------------------------|---------------------------------|
D|---------------------------------|---------------------------------|
A|---------------------------------|---------------------------------|
E|5--------------------------------|---------------------------------|

G|---------------------------------|---------------------------------|
D|---------------------------------|---------------------------------|
A|---------------------------------|---------------------------------|
E|0---------------4-------7--------|0---------------4-------7--------|

G|---------------------------------|---------------------------------|
D|---------------------------------|---------------------------------|
A|---------------------------------|---------------------------------|
E|5--------------------------------|---------------------------------|

[Chorus]
G|---------------------------------|---------------------------------|
D|------------------------4--------|7-------4------------------------|
A|--------4-------7----------------|----------------7-------4---7----|
E|5--------------------------------|---------------------------------|

G|---------------------------------|---------------------------------|
D|------------------------4--------|7-------4------------------------|
A|--------4-------7----------------|----------------7-------4--------|
E|5--------------------------------|---------------------------------|

G|---------------------------------|---------------------------------|
D|---------------------------------|---------------------------------|
A|5--------------------------------|5--------------------------------|
E|--------2---------------7--------|--------2-------3-------4--------|

G|---------------------------------|---------------------------------|
D|------------------------4--------|7-------4------------------------|
A|--------4-------7----------------|----------------7-------4--------|
E|5--------------------------------|---------------------------------|

G|---------------------------------|---------------------------------|
D|---------------------------------|--------4-------7-------4--------|
A|7-------5-------4----------------|5--------------------------------|
E|------------------------4--------|---------------------------------|

G|---------------------------------|---------------------------------|
D|---------------------------------|---------------------------------|
A|--------4-------5-------6--------|7-------7------------------------|
E|---------------------------------|----------------5----------------|

***********************************
/ = slide up
\ = slide down
***********************************

            
            
Suggest correction
Creating personal tab
Creating personal tab
You can edit any tab online and save it as your Personal.

You can edit, replace or remove any tab part or add personal notes – all changes will be seen only by you.

Personal tabs can be accessed anytime from any device, even offline.
Learn more »
Give kudos to tab author, rate the tab!
1 2 3 4 5
comments
print report bad tab
guest
You may want to rate the tab now too:
select rating
Wanna post a correction for this tab? Suggest correction