Oops, an error
Loading. Please wait.

Venus And Mars Rock Show Jet Bass Tab

40 views 9 this week
no commentswrite comment
1 2 3 4 5
3 more votes to show rating
add to favorites
launch autoscroll
font size
0
reset
guitar tuner
Autoscroll
slow
fast
+/-
esc
set tempo
stop
Help us to improve Ultimate-Guitar.com Take our survey!
×
ROCKSHOW 1976 Version

Venus And Mars

Intro :
G|---------------------------------|---------------------------------|
D|---------------------------------|---------------------------------|
A|---------------------------------|---------------------------------|
E|---------------------------------|---------------------------------|

G|/7--------------/7---------------|/7-------------------------------|
D|---------------------------------|----------------/7---------------|
A|---------------------------------|---------------------------------|
E|---------------------------------|---------------------------------|

G|/7--------------/7---------------|---------------------------------|
D|---------------------------------|/7-----------7-------------------|
A|---------------------------------|---------------------------------|
E|---------------------------------|-----------------5---------------|

G|---------------------------------|---------------------------------|
D|---------------------------------|---------------------------------|
A|7-----------7---7-----------7----|----------------------------7----|
E|---------------------------------|---------------------------------|

G|---------------------------------|---------------------------------|
D|7-----------/7--/7---------------|---------------------------------|
A|---------------------------------|0------------0---0---------------|
E|---------------------------------|---------------------------------|

Verse 1 :
G|/7--------------/7---------------|---------------------------------|
D|---------------------------------|7----------------7----------7----|
A|---------------------------------|---------------------------------|
E|---------------------------------|---------------------------------|

G|---------------------------------|-------------/7--/7---------7----|
D|7-----------7---7-----------7----|---------------------------------|
A|---------------------------------|5--------------------------------|
E|---------------------------------|---------------------------------|

G|---------------------------------|---------------------------------|
D|---------------------------------|---------------------------------|
A|5-----------5---5----------------|0------------0---0---------------|
E|---------------------------------|---------------------------------|

G|---------------------------------|---------------------------------|
D|---------------------------------|---------------------------------|
A|7-----------7---7-----------7----|7------------7---7----------7----|
E|---------------------------------|---------------------------------|

G|---------------------------------|---------------------------------|
D|---------------------------------|---------------------------------|
A|0---------------0-----------0----|0--------------------0-----------|
E|---------------------------------|---------------------------------|

Interlude :
G|---------------------------------|---------------------------------|
D|---------------------------------|---------------------------------|
A|---------------------------------|---------------------------------|
E|3---------------5----------------|1------------/---10--------------|

G|---------------------------------|---------------------------------|
D|---------------------------------|---------------------------------|
A|---------------------------------|---------------------------------|
E|3---------------5----------------|1------------/---10--------------|

G|---------------------------------|---------------------------------|
D|---------------------------------|---------------------------------|
A|---------------------------------|-------------------------5-------|
E|3---------------5----------------|1----------------3---------------|

Rockshow

Intro
G|----------------------------2----|---------------------------------|
D|----------------2---2---4--------|---------------------------------|
A|0-------3---4--------------------|0---0---3---4---5-------5--------|
E|---------------------------------|---------------------------------|

G|----------------------------2----|---------------------------------|
D|----------------2---2---4--------|---------------------------------|
A|0-------3---4--------------------|0---0---3---4---5-------0--------|
E|---------------------------------|---------------------------------|

G|---------------------------------|---------------------------------|
D|---------------------------------|---------------------------------|
A|7--------------------------------|---------------------------------|
E|---------------------------------|---------------------------------|

Verse 1 :
G|----------------------------2----|----------------------------2----|
D|----------------2---2---4--------|----------------2---2---4--------|
A|0---0---3---4--------------------|0---0---3---4--------------------|
E|---------------------------------|---------------------------------|

G|----------------------------2----|---------------------------------|
D|----------------2---2---4--------|----------------2---2------------|
A|0---0---3---4--------------------|0---0---3---4--------------------|
E|---------------------------------|------------------------3---3----|

G|---------------------------------|---------------------------------|
D|----------------------------2----|---------------------------------|
A|--------------------2---4--------|---------------------------------|
E|0---0---2---3---4----------------|0---0---3---4---0---0---3---4----|

G|----------------------------2----|---------------------------------|
D|----------------2---2---4--------|---------------------------------|
A|0---0---3---4--------------------|0---0---3---4---0---0------------|
E|---------------------------------|------------------------0---2----|

G|----------------------------2----|----------------------------2----|
D|----------------2---2---4--------|----------------2---2---4--------|
A|0---0---3---4--------------------|0---0---3---4--------------------|
E|---------------------------------|---------------------------------|

G|----------------------------2----|---------------------------------|
D|----------------2---2---4--------|----------------2---2------------|
A|0---0---3---4--------------------|0---0---3---4--------------------|
E|---------------------------------|------------------------3---3----|

G|---------------------------------|---------------------------------|
D|----------------------------2----|---------------------------------|
A|--------------------2---4--------|---------------------------------|
E|0---0---2---3---4----------------|0---0---3---4---0---0---3---4----|

G|----------------------------2----|---------------------------------|
D|----------------2---2---4--------|---------------------------------|
A|0---0---3---4--------------------|0---0---3---4---0---0---2---0----|
E|---------------------------------|---------------------------------|

Chorus :
G|---------------------------------|----------------------------2----|
D|---------------------------------|----------------2-------4--------|
A|5---5---5---5---5---5---3---2----|0-------3---4--------------------|
E|---------------------------------|---------------------------------|

G|---------------------------------|----------------------------2----|
D|---------------------------------|----------------2---2---4--------|
A|5---5---5---5---5---5---3---2----|0---0---3---4--------------------|
E|---------------------------------|---------------------------------|

G|---------------------------------|---------------------------------|
D|---------------------------------|--------2---4--------------------|
A|5---5---5---5---5---5---3---2----|0---4----------------------------|
E|---------------------------------|----------------2---0---2--------|

G|---------------------------------|---------------------------------|
D|---------------------------------|---------------------------------|
A|---------------------------------|---------------------------------|
E|2---0---2-------2---0---2--------|2---0---2-------2---0---2--------|

G|---------------------------------|---------------------------------|
D|---------------------------------|---------------------------------|
A|---------------------------------|---------------------------------|
E|2---0---2-------2---0---2--------|2---0---2-------2---0---2--------|

G|---------------------------------|---------------------------------|
D|----------------------------2----|----2---0---0--------------------|
A|--------------------2---4--------|----------------4---4---2---2----|
E|0---0---0---2---4----------------|---------------------------------|

G|----------------------------2----|---------------------------------|
D|----------------2---2---4--------|---------------------------------|
A|0---0---3---4--------------------|0---0---3---4---5-------5--------|
E|---------------------------------|---------------------------------|

G|----------------------------2----|---------------------------------|
D|----------------2---2---4--------|---------------------------------|
A|0---0---3---4--------------------|0---0---3---4---5-------0--------|
E|---------------------------------|---------------------------------|

Bridge 1 :
G|---------------------------------|---------------------------------|
D|---------------------------------|---------------------------------|
A|5--------------------------------|------------------------0---/----|
E|---------------------------------|---------------------------------|

G|---------------------------------|---------------------------------|
D|---------------------------------|---------------------------------|
A|5--------------------------------|---------------------------------|
E|---------------------------------|---------------------------------|

G|---------------------------------|---------------------------------|
D|---------------------------------|---------------------------------|
A|5---------------------------0----|5-----------------------2---0----|
E|---------------------------------|---------------------------------|

G|---------------------------------|---------------------------------|
D|---------------------------------|---------------------------------|
A|5---------------------------0----|5---------------------------0----|
E|---------------------------------|---------------------------------|

G|---------------------------------|---------------------------------|
D|---------------------------------|--------4---5--------------------|
A|5--------------------------------|5---5---------------5---2--------|
E|---------------------------------|---------------------------------|

G|---------------------------------|---------------------------------|
D|---------------------------------|---------------------------------|
A|---------------------------------|------------------------0--------|
E|3--------------------------------|---------------------------------|

G|---------------------------------|---------------------------------|
D|---------------------------------|---------------------------------|
A|5---------------------------0----|5---------------------------0----|
E|---------------------------------|---------------------------------|

G|---------------------------------|---------------------------------|
D|---------------------------------|---------------------------------|
A|5---------------------------0----|5-----------5---5---5---4--------|
E|---------------------------------|---------------------------------|

G|---------------------------------|---------------------------------|
D|---------------------------------|---------------------------------|
A|2--------------------------------|2---2----------------------------|
E|---------------------------------|---------------------------------|

G|---------------------------------|---------------------------------|
D|----------------------------2----|---------------------------------|
A|--------------------2---4--------|---------------------------------|
E|0---0---0---2---4----------------|---------------------------------|

G|---------------------------------|
D|---------------------------------|
A|--------------------0---2---4----|
E|---------------------------------|

Chorus :
G|---------------------------------|----------------------------2----|
D|---------------------------------|----------------2---2---4--------|
A|5---5---5---5---5---5---3---2----|0---0---3---4--------------------|
E|---------------------------------|---------------------------------|

G|---------------------------------|----------------------------2----|
D|---------------------------------|----------------2---2---4--------|
A|5---5---5---5---5---5---3---2----|0---0---3---4--------------------|
E|---------------------------------|---------------------------------|

G|---------------------------------|---------------------------------|
D|---------------------------------|--------2---4--------------------|
A|5---5---5---5---5---5---3---2----|0---4----------------------------|
E|---------------------------------|----------------2---0---2--------|

G|---------------------------------|---------------------------------|
D|---------------------------------|---------------------------------|
A|---------------------------------|---------------------------------|
E|2---0---2-------2---0---2--------|2---0---2-------2---0---2--------|

G|---------------------------------|---------------------------------|
D|---------------------------------|---------------------------------|
A|---------------------------------|---------------------------------|
E|2---0---2-------2---0---2--------|2---0---2-------2---0---2--------|

G|---------------------------------|---------------------------------|
D|----------------------------2----|----2---0---0--------------------|
A|--------------------2---4--------|----------------4---4---2---2----|
E|0---0---0---2---4----------------|---------------------------------|

Bridge 2 :
G|---------------------------------|---------------------------------|
D|---------------------------------|---------------------------------|
A|---------------------------------|---------------------------------|
E|5---5---5---5---5----------------|5---5---5---5---5----------------|

G|---------------------------------|---------------------------------|
D|---------------------------------|---------------------------------|
A|---------------------------------|---------------------------------|
E|5---5---5---5---5----------------|5---5---5---5---5----------------|

G|---------------------------------|---------------------------------|
D|---------------------------------|---------------------------------|
A|---------------------------------|---------------------------------|
E|5---5---5---5---5----------------|5---5---5---5---5----------------|

G|---------------------------------|---------------------------------|
D|---------------------------------|---------------------------------|
A|---------------------------------|---------------------------------|
E|5---5---5---5---5----------------|5---5---5---5---5----------------|

G|---------------------------------|---------------------------------|
D|---------------------------------|---------------------------------|
A|---------------------------------|---------------------------------|
E|5---5---5---5---5----------------|5---5---5---5---5----------------|

G|---------------------------------|---------------------------------|
D|---------------------------------|---------------------------------|
A|---------------------------------|---------------------------------|
E|5---5---5---5---5----------------|5---5---5---5---5-------6--------|

G|---------------------------------|---------------------------------|
D|---------------------------------|---------------------------------|
A|---------------------------------|---------------------------------|
E|7---7---7---7---7----------------|7---7---7---7---7----------------|

G|---------------------------------|---------------------------------|
D|---------------------------------|---------------------------------|
A|---------------------------------|---------------------------------|
E|7---7---7---7---7----------------|7---7---7---7---7----------------|

G|---------------------------------|---------------------------------|
D|---------------------------------|---------------------------------|
A|7---------------5----------------|3---------------2----------------|
E|---------------------------------|---------------------------------|

G|---------------------------------|---------------------------------|
D|---------------------------------|---------------------------------|
A|0--------------------------------|---------------------------------|
E|---------------------------------|--------------------3------------|

Interlude :
G|---------------------------------|---------------------------------|
D|---------------------------------|---------------------------------|
A|------------------------5--------|----3-----------5----------------|
E|0-----------3--------------------|---------------------------------|

G|---------------------------------|---------------------------------|
D|---------------------------------|---------------------------------|
A|---------------------------------|---------------------------------|
E|5---5---5---5---5---5---5---5----|5---5---5---5---5---3------------|

G|---------------------------------|---------------------------------|
D|---------------------------------|---------------------------------|
A|------------------------5--------|----3-----------5----------------|
E|0-----------3--------------------|---------------------------------|

G|---------------------------------|2---2----------------------------|
D|----------------2---2---4---4----|--------4---4---2---2------------|
A|0---0---3---4--------------------|------------------------4---4----|
E|---------------------------------|---------------------------------|

Verse 2 :
G|----------------------------2----|----------------------------2----|
D|----------------2---2---4--------|----------------2---2---4--------|
A|0---0---3---4--------------------|0---0---3---4--------------------|
E|---------------------------------|---------------------------------|

G|----------------------------2----|---------------------------------|
D|----------------2---2---4--------|----------------2---2------------|
A|0---0---3---4--------------------|0---0---3---4--------------------|
E|---------------------------------|------------------------3---3----|

G|---------------------------------|---------------------------------|
D|----------------------------2----|---------------------------------|
A|--------------------2---4--------|---------------------------------|
E|0---0---2---3---4----------------|0---0---3---4---0---0---3---4----|

G|----------------------------2----|---------------------------------|
D|----------------2---2---4--------|---------------------------------|
A|0---0---3---4--------------------|0---0---3---4---0---0---2---0----|
E|---------------------------------|---------------------------------|

Chorus :
G|---------------------------------|----------------------------2----|
D|---------------------------------|----------------2-------4--------|
A|5---5---5---5---5---5---3---2----|0-------3---4--------------------|
E|---------------------------------|---------------------------------|

G|---------------------------------|----------------------------2----|
D|---------------------------------|----------------2---2---4--------|
A|5---5---5---5---5---5---3---2----|0---0---3---4--------------------|
E|---------------------------------|---------------------------------|

G|---------------------------------|---------------------------------|
D|---------------------------------|--------2---4--------------------|
A|5---5---5---5---5---5---3---2----|0---4----------------------------|
E|---------------------------------|----------------2---0---2--------|

G|---------------------------------|---------------------------------|
D|---------------------------------|---------------------------------|
A|---------------------------------|---------------------------------|
E|2---0---2-------2---0---2--------|2---0---2-------2---0---2--------|

G|---------------------------------|---------------------------------|
D|---------------------------------|---------------------------------|
A|---------------------------------|---------------------------------|
E|2---0---2-------2---0---2--------|2---0---2-------2---0---2--------|

G|---------------------------------|---------------------------------|
D|----------------------------2----|----2---0---0--------------------|
A|--------------------2---4--------|----------------4---4---2---2----|
E|0---0---0---2---4----------------|---------------------------------|

G|---------------------------------|----------------------------2----|
D|---------------------------------|----------------2-------4--------|
A|5---5---5---5---5---5---3---2----|0-------3---4--------------------|
E|---------------------------------|---------------------------------|

G|---------------------------------|----------------------------2----|
D|---------------------------------|----------------2---2---4--------|
A|5---5---5---5---5---5---3---2----|0---0---3---4--------------------|
E|---------------------------------|---------------------------------|

G|---------------------------------|----------------------------2----|
D|---------------------------------|----------------2---2---4--------|
A|5---5---5---5---5---5---3---2----|0---0---3---4--------------------|
E|---------------------------------|---------------------------------|

G|---------------------------------|---------------------------------|
D|---------------------------------|---------------------------------|
A|5---5---5---5---5---5------------|------------------------3---4----|
E|------------------------2---3----|5---5---5---5---5---5------------|

G|---------------------------------|---------------------------------|
D|---------------------------------|---------------------------------|
A|5---5---5---5---5---5------------|------------------------3---4----|
E|------------------------2---3----|5---5---5---5---5---5------------|

G|---------------------------------|---------------------------------|
D|---------------------------------|---------------------------------|
A|5---5---5---5---5---5------------|------------------------3---4----|
E|------------------------2---3----|5---5---5---5---5---5------------|

G|---------------------------------|---------------------------------|
D|---------------------------------|---------------------------------|
A|5---5---5---5---5---5------------|------------------------3---4----|
E|------------------------2---3----|5---5---5---5---5---5------------|

G|---------------------------------|---------------------------------|
D|---------------------------------|---------------------------------|
A|5---5---5---5---5---5------------|------------------------3---4----|
E|------------------------2---3----|5---5---5---5---5---5------------|

G|---------------------------------|---------------------------------|
D|---------------------------------|---------------------------------|
A|5---5---5---5---5---5------------|------------------------3---4----|
E|------------------------2---3----|5---5---5---5---5---5------------|

G|---------------------------------|---------------------------------|
D|---------------------------------|---------------------------------|
A|5---5---5---5---5---5------------|------------------------3---4----|
E|------------------------2---3----|5---5---5---5---5---5------------|

G|---------------------------------|---------------------------------|
D|---------------------------------|---------------------------------|
A|5---5---5---5---5---5------------|------------------------3---4----|
E|------------------------2---3----|5---5---5---5---5---5------------|

G|---------------------------------|---------------------------------|
D|---------------------------------|---------------------------------|
A|5---5---5---5---5---5------------|---------------------------------|
E|------------------------2---3----|5--------------------------------|

G|---------------------------------|
D|---------------------------------|
A|---------------------------------|
E|---------------------------------|

Jet

Intro :
G|---------------------------------|---------------------------------|
D|---------------------------------|---------------------------------|
A|2-----------------2-----4---5----|---------------------------------|
E|---------------------------------|---------------------------------|

G|---------------------------------|---------------------------------|
D|---------------------------------|---------------------------------|
A|2-----------------2-----4---5----|---------------------------------|
E|---------------------------------|---------------------------------|

G|---------------------------------|---------------------------------|
D|---------------------------------|---------------------------------|
A|4--------------------------------|---------------------------------|
E|---------------------------------|---------------------------------|

G|---------------------------------|---------------------------------|
D|---------------------------------|---------------------------------|
A|2-----------------2-----4---5----|---------------------------------|
E|---------------------------------|---------------------------------|

G|---------------------------------|---------------------------------|
D|---------------------------------|---------------------------------|
A|2-----------------2-----4---5----|---------------------------------|
E|---------------------------------|---------------------------------|

G|---------------------------------|---------------------------------|
D|---------------------------------|---------------------------------|
A|2-----------------2-----4---5----|---------------------------------|
E|---------------------------------|---------------------------------|

G|---------------------------------|---------------------------------|
D|---------------------------------|---------------------------------|
A|4--------------------------------|---------------------------------|
E|---------------------------------|---------------------------------|

G|---------------------------------|---------------------------------|
D|---------------------------------|---------------------------------|
A|2-----------------2-----4---5----|---------------------------------|
E|---------------------------------|---------------------------------|

G|---------------------------------|---------------------------------|
D|---------------------------------|---------------------------------|
A|0---0---0---0---0---0---0---0----|0---0---0---0---0---0---0--------|
E|---------------------------------|----------------------------3----|

G|---------------------------------|---------------------------------|
D|---------------------------------|---------------------------------|
A|0---0---0---0---0---0---0---0----|0---0---0---0---0---0---0--------|
E|---------------------------------|----------------------------3----|

Verse 1 :
G|---------------------------------|---------------------------------|
D|---------------------------------|---------------------------------|
A|0---0---0---0---0---0---0---0----|0---0---0---0---0---0---0---0----|
E|---------------------------------|---------------------------------|

G|---------------------------------|---------------------------------|
D|---------------------------------|---------------------------------|
A|0-----------0-------0------------|---------------------------------|
E|---------------------------------|----5---5---3---3---0---0---0----|

G|---------------------------------|---------------------------------|
D|---------------------------------|---------------------------------|
A|0---0---0---0---0---0---0---0----|0---0---0---0---0---0---0---0----|
E|---------------------------------|---------------------------------|

G|---------------------------------|---------------------------------|
D|---------------------------------|---------------------------------|
A|0-----------0--------------------|0-----------0--------------------|
E|---------------------------------|---------------------------------|

Chorus :
G|---------------------------------|---------------------------------|
D|---------------------------------|---------------------------------|
A|4--------------------------------|---------------------------------|
E|---------------------------------|---------------------------------|

G|---------------------------------|---------------------------------|
D|---------------------------------|---------------------------------|
A|2-----------------2-----4---5----|---------------------------------|
E|---------------------------------|---------------------------------|

G|---------------------------------|---------------------------------|
D|---------------------------------|---------------------------------|
A|0---0---0---0---0---0---0---0----|0---0---0---0---0---0---0---0----|
E|---------------------------------|---------------------------------|

G|---------------------------------|---------------------------------|
D|---------------------------------|---------------------------------|
A|0---0---0---0---0---0---0---0----|0---0---0---0---0---0---0---0----|
E|---------------------------------|---------------------------------|

Verse 2 :
G|---------------------------------|---------------------------------|
D|---------------------------------|---------------------------------|
A|0---0---0---0---0---0---0---0----|0---0---0---0---0---0---0---0----|
E|---------------------------------|---------------------------------|

G|---------------------------------|---------------------------------|
D|---------------------------------|---------------------------------|
A|0-----------0-------0------------|0---0---0---0---0---0---0---0----|
E|---------------------------------|---------------------------------|

G|---------------------------------|---------------------------------|
D|---------------------------------|---------------------------------|
A|0---0---0---0---0---0---0---0----|0---0---0---0---0---0---0---0----|
E|---------------------------------|---------------------------------|

G|---------------------------------|---------------------------------|
D|---------------------------------|---------------------------------|
A|0-----------0--------------------|0-----------0--------------------|
E|---------------------------------|---------------------------------|

Chorus :
G|---------------------------------|---------------------------------|
D|---------------------------------|---------------------------------|
A|4--------------------------------|---------------------------------|
E|---------------------------------|---------------------------------|

G|---------------------------------|---------------------------------|
D|---------------------------------|---------------------------------|
A|2-----------------2-----4---5----|---------------------------------|
E|---------------------------------|---------------------------------|

G|---------------------------------|---------------------------------|
D|---------------------------------|---------------------------------|
A|0---0---0---0---0---0---0---0----|0---0---0---0---0---0---0---0----|
E|---------------------------------|---------------------------------|

G|---------------------------------|---------------------------------|
D|---------------------------------|---------------------------------|
A|0---0---0---0---0---0---0---0----|0---0---0---0---0---0---0---0----|
E|---------------------------------|---------------------------------|

Bridge :
G|---------------------------------|---------------------------------|
D|---------------------------------|---------------------------------|
A|2---2---2---2---2---2---2---2----|2---2---2---2---2---2---2---2----|
E|---------------------------------|---------------------------------|

G|---------------------------------|--------1-------2-------3--------|
D|------------------------2--------|4--------------------------------|
A|2---2---2---2---2---2------------|---------------------------------|
E|---------------------------------|---------------------------------|

G|---------------------------------|---------------------------------|
D|---------------------------------|---------------------------------|
A|2---2---2---2---2---2---2---2----|2---2---2---2---2---2---2---2----|
E|---------------------------------|---------------------------------|

G|---------------------------------|--------1-------2-------3--------|
D|------------------------2--------|4--------------------------------|
A|2---2---2---2---2---2------------|---------------------------------|
E|---------------------------------|---------------------------------|

G|---------------------------------|---------------------------------|
D|---------------------------------|---------------------------------|
A|2---2---2---2---2---2---2---2----|2---2---2---2---2---2---2---2----|
E|---------------------------------|---------------------------------|

G|---------------------------------|---------------------------------|
D|---------------------------------|---------------------------------|
A|0-----------7-------0------------|---------------------------------|
E|---------------------------------|---------------------------------|

Solo :
G|---------------------------------|---------------------------------|
D|---------------------------------|---------------------------------|
A|0---0---0---0---0---0---0---0----|0---0---0---0---0---0---0---0----|
E|---------------------------------|---------------------------------|

G|---------------------------------|---------------------------------|
D|---------------------------------|---------------------------------|
A|0---0---0---0---0---0---0---0----|0---0---0---0---0---0---0--------|
E|---------------------------------|----------------------------3----|

G|---------------------------------|---------------------------------|
D|---------------------------------|---------------------------------|
A|0---0---0---0---0---0---0---0----|0---0---0---0---0---0---0---0----|
E|---------------------------------|---------------------------------|

G|---------------------------------|---------------------------------|
D|---------------------------------|---------------------------------|
A|0-----------0-------0------------|0---0---0---0---0---0---0---0----|
E|---------------------------------|---------------------------------|

G|---------------------------------|---------------------------------|
D|---------------------------------|---------------------------------|
A|0---0---0---0---0---0---0---0----|0---0---0---0---0---0---0---0----|
E|---------------------------------|---------------------------------|

G|---------------------------------|---------------------------------|
D|---------------------------------|---------------------------------|
A|0-----------0--------------------|0-----------0--------------------|
E|---------------------------------|---------------------------------|

Chorus :
G|---------------------------------|---------------------------------|
D|---------------------------------|---------------------------------|
A|4--------------------------------|---------------------------------|
E|---------------------------------|---------------------------------|

G|---------------------------------|---------------------------------|
D|---------------------------------|---------------------------------|
A|2-----------------2-----4---5----|---------------------------------|
E|---------------------------------|---------------------------------|

G|---------------------------------|---------------------------------|
D|---------------------------------|---------------------------------|
A|0---0---0---0---0---0---0---0----|0---0---0---0---0---0---0---0----|
E|---------------------------------|---------------------------------|

G|---------------------------------|---------------------------------|
D|---------------------------------|---------------------------------|
A|0---0---0---0---0---0---0---0----|0---0---0---0---0---0---0---0----|
E|---------------------------------|---------------------------------|

Bridge :
G|---------------------------------|---------------------------------|
D|---------------------------------|---------------------------------|
A|2---2---2---2---2---2---2---2----|2---2---2---2---2---2---2---2----|
E|---------------------------------|---------------------------------|

G|---------------------------------|--------1-------2-------3--------|
D|------------------------2--------|4--------------------------------|
A|2---2---2---2---2---2------------|---------------------------------|
E|---------------------------------|---------------------------------|

G|---------------------------------|---------------------------------|
D|---------------------------------|---------------------------------|
A|2---2---2---2---2---2---2---2----|2---2---2---2---2---2---2---2----|
E|---------------------------------|---------------------------------|

G|---------------------------------|--------1-------2-------3--------|
D|------------------------2--------|4--------------------------------|
A|2---2---2---2---2---2------------|---------------------------------|
E|---------------------------------|---------------------------------|

G|---------------------------------|---------------------------------|
D|---------------------------------|---------------------------------|
A|2---2---2---2---2---2---2---2----|2---2---2---2---2---2---2---2----|
E|---------------------------------|---------------------------------|

G|---------------------------------|---------------------------------|
D|---------------------------------|---------------------------------|
A|0-----------7-------0------------|---------------------------------|
E|---------------------------------|---------------------------------|

Solo :
G|---------------------------------|---------------------------------|
D|---------------------------------|---------------------------------|
A|0---0---0---0---0---0---0---0----|0---0---0---0---0---0---0---0----|
E|---------------------------------|---------------------------------|

G|---------------------------------|---------------------------------|
D|---------------------------------|---------------------------------|
A|0---0---0---0---0---0---0---0----|0---0---0---0---0---0---0--------|
E|---------------------------------|----------------------------3----|

Verse 3 :
G|---------------------------------|---------------------------------|
D|---------------------------------|---------------------------------|
A|0---0---0---0---0---0---0---0----|0---0---0---0---0---0---0---0----|
E|---------------------------------|---------------------------------|

G|---------------------------------|---------------------------------|
D|---------------------------------|---------------------------------|
A|0-----------0-------0------------|0---0---0---0---0---0---0---0----|
E|---------------------------------|---------------------------------|

G|---------------------------------|---------------------------------|
D|---------------------------------|---------------------------------|
A|0---0---0---0---0---0---0---0----|0---0---0---0---0---0---0---0----|
E|---------------------------------|---------------------------------|

G|---------------------------------|---------------------------------|
D|---------------------------------|---------------------------------|
A|0-----------0--------------------|0-----------0--------------------|
E|---------------------------------|---------------------------------|

Chorus :
G|---------------------------------|---------------------------------|
D|---------------------------------|---------------------------------|
A|4--------------------------------|---------------------------------|
E|---------------------------------|---------------------------------|

G|---------------------------------|---------------------------------|
D|---------------------------------|---------------------------------|
A|2-----------------2-----4---5----|---------------------------------|
E|---------------------------------|---------------------------------|

G|---------------------------------|---------------------------------|
D|---------------------------------|---------------------------------|
A|0---0---0---0---0---0---0---0----|0---0---0---0---0---0---0---0----|
E|---------------------------------|---------------------------------|

G|---------------------------------|---------------------------------|
D|---------------------------------|---------------------------------|
A|0---0---0---0---0---0---0---0----|0---0---0---0---0---0---0---0----|
E|---------------------------------|---------------------------------|

G|---------------------------------|---------------------------------|
D|---------------------------------|---------------------------------|
A|4--------------------------------|---------------------------------|
E|---------------------------------|---------------------------------|

G|---------------------------------|---------------------------------|
D|---------------------------------|---------------------------------|
A|2-----------------2-----4---5----|---------------------------------|
E|---------------------------------|---------------------------------|

G|---------------------------------|---------------------------------|
D|---------------------------------|---------------------------------|
A|0---0---0---0---0---0---0---0----|0---0---0---0---0---0---0---0----|
E|---------------------------------|---------------------------------|

Outro :
G|---------------------------------|---------------------------------|
D|---------------------------------|---------------------------------|
A|2-----------------2-----4---5----|---------------------------------|
E|---------------------------------|---------------------------------|

G|---------------------------------|---------------------------------|
D|---------------------------------|---------------------------------|
A|2-----------------2-----4---5----|---------------------------------|
E|---------------------------------|---------------------------------|

G|---------------------------------|----------------7---5---0--------|
D|---------------------------------|---------------------------------|
A|4--------------------------------|---------------------------------|
E|---------------------------------|---------------------------------|

G|---------------------------------|---------------------------------|
D|---------------------------------|---------------------------------|
A|2-----------2---2-----------2----|2-----------2---2-----------2----|
E|---------------------------------|---------------------------------|

G|---------------------------------|---------------------------------|
D|---------------------------------|---------------------------------|
A|2-----------2---4-------4--------|---------------------------------|
E|---------------------------------|5--------------------------------|
Suggest correction
Give kudos to tab author, rate the tab!
1 2 3 4 5
comments
print report bad tab
guest
You may want to rate the tab now too:
select rating
Wanna post a correction for this tab? Suggest correction