Oops, an error
Loading. Please wait.

Walking In The Park With Eloise bass

133 views 3 this week
no commentswrite comment
1 2 3 4 5
2 more votes to show rating
add to favorites
×
Save as Personal and add changes to this tab that will be seen only by you. Learn more ›
×
You can save this tab as Personal to edit and correct it or add notes. All changes will be seen only by you. Learn more »
launch autoscroll
font size
0
reset
guitar tuner
edit
Autoscroll
slow
fast
+/-
esc
set tempo
stop
All instrumental

[Verse]
G|---------------------------------|---------------------------------|
D|---------------------------------|---------------------------------|
A|---------------------------------|----------------7----------------|
E|---------------------------------|---------------------------------|

G|---------------------------------|---------------------------------|
D|7---------------7----------------|7-------5-------4----------------|
A|--------7---------------7--------|------------------------7---6----|
E|---------------------------------|---------------------------------|

G|---------------------------------|---------------------------------|
D|--------7---------------7--------|9-----------------------9--------|
A|5---------------5----------------|--------9-------7----------------|
E|---------------------------------|---------------------------------|

G|---------------------------------|---------------------------------|
D|7---------------7----------------|----------------------------4----|
A|--------7---------------7--------|5-------------------5---7--------|
E|---------------------------------|---------------------------------|

G|---------------------------------|---------------------------------|
D|5---------------5----------------|--------9---------------9---\----|
A|--------5---------------5---6----|7---------------7----------------|
E|---------------------------------|---------------------------------|

G|---------------------------------|---------------------------------|
D|7---------------7----------------|7---------------------------7----|
A|--------7---------------7--------|--------7------------------------|
E|---------------------------------|----------------5-------0--------|

[Chorus]
G|---------------------------------|---------------------------------|
D|8-----------8-\-5-----------5-/--|9-----------9-\-6----------------|
A|---------------------------------|------------------------7--------|
E|---------------------------------|---------------------------------|

G|---------------------------------|---------------------------------|
D|7-----------------------7--------|5---------------5-----------4----|
A|--------7---6---5----------------|--------5-----------5---7--------|
E|---------------------------------|---------------------------------|

[Verse]
G|---------------------------------|---------------------------------|
D|5---------------5----------------|--------9---------------9---8----|
A|--------5---------------5---6----|7---------------7----------------|
E|---------------------------------|---------------------------------|

G|---------------------------------|---------------------------------|
D|7---------------7----------------|7-------5-------4----------------|
A|--------7---------------7--------|------------------------7--------|
E|---------------------------------|---------------------------------|

G|---------------------------------|----------------------------9----|
D|---------------------------------|------------------------9--------|
A|5---------------5-----------5----|--------9-------7----------------|
E|--------5---------------5--------|7--------------------------------|

G|---------------------------------|---------------------------------|
D|7---------------7----------------|--------7-------------------4----|
A|--------7---------------7--------|5---------------5---5---7--------|
E|---------------------------------|---------------------------------|

G|---------------------------------|---------------------------------|
D|5---------------5----------------|--------9---------------9---\----|
A|--------5---------------5---6----|7---------------7----------------|
E|---------------------------------|---------------------------------|

G|---------------------------------|---------------------------------|
D|7---------------7----------------|----------------7----------------|
A|--------7---------------7--------|--------7---------------7--------|
E|---------------------------------|5--------------------------------|

[Chorus]
G|---------------------------------|---------------------------------|
D|8-----------8-\-5-----------5-/--|9-----------9---6----------------|
A|---------------------------------|------------------------7--------|
E|---------------------------------|---------------------------------|

G|---------------------------------|---------------------------------|
D|7-----------------------7--------|5-------7-------8-------9-\------|
A|--------7---6---5----------------|----------------------------5----|
E|---------------------------------|---------------------------------|

[Verse]
G|---------------------------------|---------------------------------|
D|5---------------5----------------|--------9---------------9---8----|
A|--------5---------------5---6----|7---------------7----------------|
E|---------------------------------|---------------------------------|

G|---------------------------------|---------------------------------|
D|7---------------7----------------|7-------5-------4----------------|
A|--------7---------------7--------|------------------------7--------|
E|---------------------------------|---------------------------------|

G|---------------------------------|---------------------------------|
D|--------7---------------7---8----|9-----------------------9---\----|
A|5---------------5----------------|--------9-------7----------------|
E|---------------------------------|---------------------------------|

G|---------------------------------|----------------7----------------|
D|7---------------7----------------|--------7-------------------4----|
A|--------7---------------7--------|5-------------------5---7--------|
E|---------------------------------|---------------------------------|

G|---------------------------------|---------------------------------|
D|5---------------5----------------|--------9---------------9---8----|
A|--------5---------------5---6----|7---------------7----------------|
E|---------------------------------|---------------------------------|

G|---------------------------------|---------------------------------|
D|7---------------7----------------|----------------7-------7--------|
A|--------7---------------7--------|--------7------------------------|
E|---------------------------------|5--------------------------------|

[Chorus]
G|---------------------------------|---------------------------------|
D|8-----------8---5-----------5----|9-----------9---6----------------|
A|---------------------------------|------------------------7--------|
E|---------------------------------|---------------------------------|

G|---------------------------------|---------------------------------|
D|7-----------------------7--------|5-----------------------3--------|
A|--------7---6---5----------------|--------5-------3----------------|
E|---------------------------------|---------------------------------|

[Bridge]
G|---------------------------------|---------------------------------|
D|--------3---------------3---4----|5---------------5----------------|
A|1---------------1----------------|--------5---------------5---4----|
E|---------------------------------|---------------------------------|

G|---------------------------------|---------------------------------|
D|--------5---------------5--------|--------0-------1-------2--------|
A|3---------------3----------------|3--------------------------------|
E|---------------------------------|---------------------------------|

G|---------------------------------|---------------------------------|
D|3---------------3-----------3----|--------7-------5----------------|
A|--------3---------------3--------|5-----------------------5--------|
E|---------------------------------|---------------------------------|

G|---------------------------------|------------------------0---2----|
D|--------5---------------5--------|3-------------------3------------|
A|3---------------3----------------|---------------------------------|
E|---------------------------------|---------------------------------|

G|3---------------3----------------|---------------------------------|
D|--------3---------------3---4----|5---------------5----------------|
A|---------------------------------|--------5---------------5--------|
E|---------------------------------|---------------------------------|

G|---------------------------------|----------------5----------------|
D|--------5---------------5--------|--------5---------------5--------|
A|3---------------3----------------|3---------------------------3----|
E|---------------------------------|---------------------------------|

[Chorus]
G|---------------------------------|---------------------------------|
D|---------------------------------|----------------5-------5--------|
A|4-----------3---1-----------/----|5-------5-------------------5----|
E|---------------------------------|---------------------------------|

G|---------------------------------|---------------------------------|
D|--------5---4---3-------3--------|---------------------------------|
A|3--------------------------------|1--------------------------------|
E|---------------------------------|---------------------------------|

G|---------------------------------|---------------------------------|
D|---------------------------------|----------------5----------------|
A|4---------------1-----------/----|5-------5---------------5---4----|
E|---------------------------------|---------------------------------|

G|---------------------------------|---------------------------------|
D|--------5---4---3-------3--------|------------------------0--------|
A|3--------------------------------|1-------3-------4----------------|
E|---------------------------------|---------------------------------|

G|------------------------3--------|---------------------------------|
D|1-------2-------3---3------------|---------------------------------|
A|---------------------------------|1--------------------------------|
E|---------------------------------|---------------------------------|

************************************

| /  Slide up
| \  Slide down

************************************
Suggest correction
Creating personal tab
Creating personal tab
You can edit any tab online and save it as your Personal.

You can edit, replace or remove any tab part or add personal notes – all changes will be seen only by you.

Personal tabs can be accessed anytime from any device, even offline.
Learn more »
Give kudos to tab author, rate the tab!
1 2 3 4 5
comments
print report bad tab
guest
You may want to rate the tab now too:
select rating
Wanna post a correction for this tab? Suggest correction