Oops, an error
Loading. Please wait.

Winter Rose - Love Awake bass

31 views 1 this week
no commentswrite comment
1 2 3 4 5
3 more votes to show rating
add to favorites
×
Save as Personal and add changes to this tab that will be seen only by you. Learn more ›
×
You can save this tab as Personal to edit and correct it or add notes. All changes will be seen only by you. Learn more »
launch autoscroll
font size
0
reset
guitar tuner
edit
Autoscroll
slow
fast
+/-
esc
set tempo
stop
Author
Difficulty
Winter Rose

Intro :
G|21----------------------19-------|----------------18---------------|
D|---------------------------------|---------------------------------|
A|---------------------------------|---------------------------------|
E|---------------------------------|---------------------------------|

G|--------16-----------------------|---------------------------------|
D|---------------------------------|---------------------------------|
A|---------------------------------|7-----------------------5--------|
E|---------------------------------|---------------------------------|

G|---------------------------------|---------------------------------|
D|---------------------------------|---------------------------------|
A|----------------4----------------|--------2------------------------|
E|---------------------------------|2--------------------------------|

Verse 1 :
G|---------------------------------|---------------------------------|
D|7-----------------------5--------|----------------4----------------|
A|---------------------------------|---------------------------------|
E|---------------------------------|---------------------------------|

G|---------------------------------|---------------------------------|
D|---------------------------------|---------------------------------|
A|4--------------------------------|2---------------/-------10-------|
E|--------2------------------------|---------------------------------|

G|---------------------------------|---------------------------------|
D|----------------7----------------|--------5------------------------|
A|---------------------------------|---------------------------------|
E|---------------------------------|---------------------------------|

G|---------------------------------|---------------------------------|
D|4--------------------------------|---------------------------------|
A|----------------4----------------|---------------------------------|
E|------------------------2--------|---------------------------------|

G|----------|
D|----------| *3 instead of 8
A|----------|
E|----------|

Chorus :
G|---------------------------------|---------------------------------|
D|------------------------4--------|--------4-------5----------------|
A|2--------------------------------|---------------------------------|
E|---------------------------------|---------------------------------|

G|--------4------------------------|---------------------------------|
D|\--------------------------------|7--------------------------------|
A|---------------------------------|---------------------------------|
E|---------------------------------|------------------------3--------|

G|---------------------------------|--------4------------------------|
D|---------------------------------|4---------------4-------4--------|
A|----------------2----------------|---------------------------------|
E|2--------------------------------|---------------------------------|

G|---------------------------------|---------------------------------|
D|------------------------4--------|--------4-------5----------------|
A|2--------------------------------|---------------------------------|
E|---------------------------------|---------------------------------|

G|--------4------------------------|---------------------------------|
D|\--------------------------------|7--------------------------------|
A|---------------------------------|---------------------------------|
E|---------------------------------|------------------------2--------|

G|---------------------------------|---------------------------------|
D|---------------------------------|---------------------------------|
A|----------------2----------------|---------------------------------|
E|---------------------------------|---------------------------------|

Interlude :
G|---------------------------------|---------------------------------|
D|6h7---------------------5--------|----------------4----------------|
A|---------------------------------|---------------------------------|
E|---------------------------------|---------------------------------|

G|---------------------------------|---------------------------------|
D|---------------------------------|------------------------5--------|
A|4--------------------------------|2-------------------/-5----------|
E|--------2------------------------|---------------------------------|

G|---------------------------------|---------------------------------|
D|----------------7----------------|--------5------------------------|
A|---------------------------------|---------------------------------|
E|---------------------------------|---------------------------------|

G|---------------------------------|---------------------------------|
D|4--------------------------------|---------------------------------|
A|----------------4----------------|---------------------------------|
E|------------------------2--------|---------------------------------|

G|----------|
D|----------| *3 instead of 8
A|----------|
E|----------|

G|---------------------------------|---------------------------------|
D|------------------------4--------|--------4-------5----------------|
A|2--------------------------------|---------------------------------|
E|---------------------------------|---------------------------------|

G|--------4------------------------|---------------------------------|
D|\--------------------------------|7---------------\----------------|
A|---------------------------------|---------------------------------|
E|---------------------------------|------------------------3--------|

G|---------------------------------|--------4------------------------|
D|---------------------------------|4---------------4-------4--------|
A|----------------2----------------|---------------------------------|
E|2--------------------------------|---------------------------------|

G|---------------------------------|---------------------------------|
D|------------------------4--------|----------------5----------------|
A|2--------------------------------|---------------------------------|
E|---------------------------------|---------------------------------|

G|--------4------------------------|---------------------------------|
D|\--------------------------------|7--------------------------------|
A|---------------------------------|---------------------------------|
E|---------------------------------|------------------------2--------|

G|---------------------------------|--------------------------|
D|---------------------------------|--------------------------|* 7 instead
A|----------------2----------------|--------------------------|    of 8
E|---------------------------------|--------------------------|

Love Awake
Tempo change 

Chorus :
G|---------------------------------|--------------|
D|7--------------------------------|--------------| *4 instead of 8
A|----------------5-----------5----|5-----------5-|
E|---------------------------------|--------------|

G|---------------------------------|---------------------------------|
D|---------------------------------|---------------------------------|
A|5-----------5---5-----------5----|---------------------------------|
E|---------------------------------|5-----------5---5-----------5----|

G|---------------------------------|---------------------------------|
D|---------------------------------|---------------------------------|
A|---------------------------------|7-----------7---7----------------|
E|5-----------5---5-----------5----|---------------------------------|

G|---------------------------------|---------------------------------|
D|---------------------------------|---------------------------------|
A|7-----------7---7----------------|---------------------------------|
E|---------------------------------|5-----------5---5-------5--------|

G|---------------------------------|---------------------------------|
D|----------------7----------------|---------------------------------|
A|---------------------------------|5-----------5---5-----------0----|
E|5--------------------------------|---------------------------------|

G|---------------------------------|---------------------------------|
D|---------------------------------|---------------------------------|
A|5-----------5---5----------------|---------------------------------|
E|---------------------------------|5-----------5---5-----------5----|

G|---------------------------------|---------------------------------|
D|---------------------------------|---------------------------------|
A|---------------------4------5----|7-----------7---7----------------|
E|5---------------5----------------|---------------------------------|

G|---------------------------------|---------------------------------|
D|---------------------------------|---------------------------------|
A|7---------7-7---5----------------|----------------4-------7--------|
E|---------------------------------|5-----------5--------------------|

G|---------------------------------|---------------------------------|
D|7-------4------------------------|------------------------7--------|
A|----------------7-------4--------|--------4-------7----------------|
E|---------------------------------|5---5----------------------------|

G|---------------------------------|7---7-------7---------------\----|
D|---------------------------------|--------7------------------------|
A|5-----------5---5----------------|---------------------------------|
E|---------------------------------|---------------------------------|

G|---------------------------------|---------------------------------|
D|---------------------------------|---------------------------------|
A|---------------------------------|---------------------------------|
E|5-----------5---5----------------|5-----------5---5----------------|

G|7---7---6-------4----------------|---------------------------------|
D|--------------------4-------/----|7--------------------------------|
A|---------------------------------|----------------8-------7---\----|
E|---------------------------------|---------------------------------|

G|---------------------------------|---------------------------------|
D|------------------------7--------|---------------------------------|
A|--------4-------7----------------|5-----------5---5----------------|
E|5---5----------------------------|---------------------------------|

G|7---7-------7--------------------|---------------------------------|
D|--------7------------------------|---------------------------------|
A|---------------------------------|---------------------------------|
E|---------------------------------|5-----------5---5-----------5----|

G|---------------------------------|---------------------------------|
D|---------------------------------|---------------------------------|
A|7-----------7---7----------------|---------------------------------|
E|---------------------------------|5-----------5---5----------------|

G|---------------------------------|---------------------------------|
D|----------------7----------------|---------------------------------|
A|---------------------------------|5-----------5---5----------------|
E|5--------------------------------|---------------------------------|

G|---------------------------------|---------------------------------|
D|----------------4-------7--------|---------------------------------|
A|5-----------5--------------------|---------------------------------|
E|---------------------------------|5-----------5---5-----------5----|

G|---------------------------------|---------------------------------|
D|---------------------------------|---------------------------------|
A|---------------------------------|7-----------7--------------------|
E|5-----------5---5-----------5----|----------------7----------------|

G|---------------------------------|---------------------------------|
D|---------------------------------|------------------------4--------|
A|7-----------7---7-------7--------|--------4-------7----------------|
E|---------------------------------|5---5----------------------------|

G|---------------------------------|---------------------------------|
D|7---7-----------7----------------|---------------------------------|
A|---------------------------------|5-----------5---5----------------|
E|---------------------------------|---------------------------------|

G|---------------------------------|---------------------------------|
D|---------------------------------|---------------------------------|
A|5-----------5---5-----------5----|---------------------------------|
E|---------------------------------|5-----------5---5-------5--------|

G|---------------------------------|---------------------------------|
D|---------------------------------|---------------------------------|
A|----------------------4-----5----|7-----------7---7----------------|
E|5---------------5----------------|---------------------------------|

G|---------------------------------|--------------|
D|---------------------------------|--------------|
A|7-----------7---5----------------|--------------|
E|---------------------------------|--------------|

G|---------------------------------|---------------------------------|
D|---------------------------------|----------------4----------------|
A|---------------------------------|------------7-----------7--------|
E|---------------------------------|5--------------------------------|

G|---------------------------------|---------------------------------|
D|---------------------------------|---------------------------------|
A|---------------------------------|---------------------------------|
E|5-----------5---5----------------|3---------------3----------------|

G|---------------------------------|---------------------------------|
D|---------------------------------|---------------------------------|
A|4-----------------------4--------|7---------------5----------------|
E|---------------------------------|---------------------------------|

G|---------------------------------|---------------------------------|
D|---------------------------------|---------------------------------|
A|3-----------3---3----------------|5-----------5---5-----------5----|
E|------------------------5--------|---------------------------------|

G|---------------------------------|---------------------------------|
D|---------------------------------|----------------9----------------|
A|---------------------------------|7--------------------------------|
E|5-----------5---5-----------5----|---------------------------------|

G|9---11--12-----------------------|---------------------------------|
D|------------10-------------------|----------------9----------------|
A|---------------------------------|7--------------------------------|
E|---------------------------------|---------------------------------|

G|12------11-----------------------|---------------------------------|
D|---------------------------------|---------------------------------|
A|---------------------------------|--------5------------------------|
E|----------------5----------------|---------------------------------|
Suggest correction
Creating personal tab
Creating personal tab
You can edit any tab online and save it as your Personal.

You can edit, replace or remove any tab part or add personal notes – all changes will be seen only by you.

Personal tabs can be accessed anytime from any device, even offline.
Learn more »
Give kudos to tab author, rate the tab!
1 2 3 4 5
comments
print report bad tab
guest
You may want to rate the tab now too:
select rating
Wanna post a correction for this tab? Suggest correction