Oops, an error
Loading. Please wait.

Young Boy bass

version 2
version 2

Whole song

Interactive

34 views 1 this week
no commentswrite comment
1 2 3 4 5
3 more votes to show rating
add to favorites
×
Save as Personal and add changes to this tab that will be seen only by you. Learn more ›
×
You can save this tab as Personal to edit and correct it or add notes. All changes will be seen only by you. Learn more »
launch autoscroll
font size
0
reset
guitar tuner
edit
Autoscroll
slow
fast
+/-
esc
set tempo
stop
Tuning :

E -> B

Intro : 
G|---------------------------------|---------------------------------|
D|---------------------------------|---------------------------------|
A|---------------------------------|---------------------------------|
B|---------------------------------|---------------------------------|

G|---------------------------------|---------------------------------|
D|---------------------------------|---------------------------------|
A|---------------------------------|---------------------------------|
B|---------------------------------|---------------------------------|

Verse 1 :
G|---------------------------------|---------------------------------|
D|---------------------------------|---------------------------------|
A|3---------------3----------------|0---------------0----------------|
B|---------------------------------|---------------------------------|

G|---------------------------------|---------------------------------|
D|---------------------------------|3-----------5-----------\--------|
A|7-----------7---7----------------|---------------------------------|
B|---------------------------------|---------------------------------|

G|---------------------------------|---------------------------------|
D|---------------------------------|---------------------------------|
A|3--------------------------------|0-----------0---0----------------|
B|----------------8----------------|---------------------------------|

G|---------------------------------|---------------------------------|
D|---------------------------------|---------------------------------|
A|7-----------7---7-------\--------|---------------------------------|
B|---------------------------------|6-----------8-----------8---7----|

G|---------------------------------|---------------------------------|
D|---------------------------------|---------------------------------|
A|---------------------------------|---------------------------------|
B|6---------------6----------------|8---------------8----------------|

G|---------------------------------|---------------------------------|
D|---------------------------------|---------------------------------|
A|0---------------0---0------------|4---5----------------------------|
B|---------------------------------|--------10--\---6----------------|

G|---------------------------------|---------------------------------|
D|---------------------------------|---------------------------------|
A|3-----------3--------------------|0-----------0-----------0--------|
B|----------------8----------------|----------------5----------------|

G|---------------------------------|---------------------------------|
D|---------------------------------|3-----------5-----------\--------|
A|7-----------7---7----------------|---------------------------------|
B|---------------------------------|---------------------------------|

G|---------------------------------|---------------------------------|
D|---------------------------------|---------------------------------|
A|3--------------------------------|0-----------0---0----------------|
B|----------------8----------------|---------------------------------|

G|---------------------------------|---------------------------------|
D|---------------------------------|---------------------------------|
A|---------------------------------|---------------------------------|
B|5-----------5---5----------------|6-----------8--------------------|


G|---------------------------------|---------------------------------|
D|---------------------------------|---------------------------------|
A|3---------------------------3----|0---------------7----------------|
B|----------------8----------------|---------------------------------|

G|---------------------------------|---------------------------------|
D|2---------------2-------2--------|3--------/--5--------------------|
A|------------2-------2------------|---------------------------------|
B|---------------------------------|---------------------------------|

G|---------------------------------|---------------------------------|
D|---------------------------------|---------------------------------|
A|---------------------------------|---------------------------------|
B|6---------------6----------------|8---------------8----------------|

G|---------------------------------|---------------------------------|
D|---------------------------------|---------------------------------|
A|0---------------0----------------|4---5---0------------------------|
B|---------------------------------|----------------6----------------|

G|---------------------------------|---------------------------------|
D|---------------------------------|---------------------------------|
A|3---------------------------3----|0---------------0----------------|
B|----------------8----------------|---------------------------------|

G|---------------------------------|---------------------------------|
D|---------------------------------|3--------/--5-------5------------|
A|7---------------7----------------|---------------------------------|
B|---------------------------------|---------------------------------|

Chorus :
G|---------------------------------|---------------------------------|
D|---------------------------------|---------------------------------|
A|--------2---0--------------------|------------------------3--------|
B|5---8---------------10--8---10---|6---------------6----------------|

G|---------------------------------|---------------------------------|
D|---------------------------------|---------------------------------|
A|------------0--------------------|---------------------------------|
B|5---8---5-----------10--8--------|6-----------8-------8---8--------|

G|---------------------------------|---------------------------------|
D|---------------------------------|---------------------------------|
A|--------2---0--------------------|------------------------3--------|
B|5---8---------------10--8---10---|6---------------6----------------|

G|---------------------------------|---------------------------------|
D|---------------------------------|---------------------------------|
A|---------------------------------|---------------------------------|
B|6-----------6---6-------5--------|3---------------3----------------|

G|---------------------------------|---------------------------------|
D|---------------------------------|---------------------------------|
A|---------------------------------|---------------------------------|
B|3-----------3---3----------------|8---------------8----------------|

G|---------------------------------|
D|5---5----------------------------|
A|--------5------------------------|
B|----------------8-------8--------|

Solo :
G|---------------------------------|---------------------------------|
D|---------------------------------|---------------------------------|
A|3---3-------------------0---3----|0-----------0---0-----------0----|
B|--------5-------8----------------|---------------------------------|

G|---------------------------------|---------------------------------|
D|2-----------2-----------2--------|3-----------5-----------5---\----|
A|--------------------2------------|---------------------------------|
B|---------------------------------|---------------------------------|

G|---------------------------------|---------------------------------|
D|---------------------------------|---------------------------------|
A|3---3-------------------0---3----|0---0-----------0----------------|
B|--------5-------8----------------|------------------------10--\----|

G|---------------------------------|---------------------------------|
D|---------------------------------|---------------------------------|
A|---------------------------------|---------------------------------|
B|5-----------5---5-----------5----|6-----------8-------8---8---\----|

G|---------------------------------|---------------------------------|
D|---------------------------------|---------------------------------|
A|---------------------------------|---------------------------------|
B|6-------6---6---6---6---6---6----|8-------8---8---8---8---8---8----|

G|---------------------------------|---------------------------------|
D|---------------------------------|------------------------------/7-|
A|0---0---0---0---0---0---0---0----|5---5---5---5---5---5---5--------|
B|---------------------------------|---------------------------------|

G|5-------7-------7-------\--------|
D|-----/7------/7------------------|
A|---------------------------------|
B|---------------------------------|

Chorus :
G|---------------------------------|---------------------------------|
D|---------------------------------|---------------------------------|
A|--------2---0--------------------|------------------------3--------|
B|5---8---------------10--8--------|6---------------6----------------|

G|---------------------------------|---------------------------------|
D|---------------------------------|---------------------------------|
A|------------0--------------------|---------------------------------|
B|5---8---------------10--8---\----|6-------/---8-------8---8--------|

G|---------------------------------|---------------------------------|
D|---------------------------------|---------------------------------|
A|--------2---0--------------------|------------------------3--------|
B|5---8---------------10--8---10---|6-----------6---6----------------|

G|---------------------------------|---------------------------------|
D|---------------------------------|---------------------------------|
A|---------------------------------|---------------------------------|
B|6-----------6---6-------6--------|3-----------3---3----------------|

G|---------------------------------|---------------------------------|
D|---------------------------------|---------------------------------|
A|---------------------------------|--------------------------/-5----|
B|3-----------3---3---3---3--------|8-----------8---8----------------|

G|---------------------------------|
D|5-------5------------------------|
A|----5-----------------------5----|
B|----------------8-------8--------|

Verse 2 :
G|---------------------------------|---------------------------------|
D|---------------------------------|---------------------------------|
A|3-----------------------3--------|---------------------------------|
B|------------5---8----------------|10----------10--10------10--\----|

G|---------------------------------|---------------------------------|
D|---------------------------------|---------------------------------|
A|---------------------------------|---------------------------------|
B|5-----------5---5----------------|6-------/---8-----------8--------|

G|---------------------------------|---------------------------------|
D|---------------------------------|---------------------------------|
A|3---------------------------3----|0-----------0---0-------0--------|
B|------------5---8-------8--------|---------------------------------|

G|---------------------------------|---------------------------------|
D|---------------------------------|3-------/---5-------5---5--------|
A|7-----------7---7----------------|---------------------------------|
B|---------------------------------|---------------------------------|

G|---------------------------------|---------------------------------|
D|---------------------------------|---------------------------------|
A|---------------------------------|---------------------------------|
B|6-----------6---6---6-------/----|8-----------8---8---8------------|

G|---------------------------------|---------------------------------|
D|---------------------------------|---------------------------------|
A|0-----------0---0----------------|4---5---0-----------------------|
B|---------------------------------|----------------6----------------|

G|---------------------------------|---------------------------------|
D|---------------------------------|---------------------------------|
A|3-----------------------3--------|0-----------0---0----------------|
B|------------5---8----------------|---------------------------------|

                                \/ tempo change from there
G|---------------------------------|---------------------------------|
D|---------------------------------|3-----------5--------------------|
A|7-----------7---7----------------|---------------------------------|
B|---------------------------------|---------------------------------|

Interlude :
G|---------------------------------|---------------------------------|
D|---------------------------------|---------------------------------|
A|---------------------------------|0-----------0---0-------0--------| 
B|1-----------3---5-------8--------|---------------------------------|

G|---------------------------------|---------------------------------|
D|---------------------------------|---------------------------------|
A|---------------------------------|---------------------------------|
B|5-----------5---5----------------|6-----------8-----------8--------|

G|---------------------------------|---------------------------------|
D|---------------------------------|---------------------------------|
A|---------------------------------|0-----------0---0----------------|
B|1-----------1---5---5---8--------|---------------------------------|

G|---------------------------------|---------------------------------|
D|---------------------------------|---------------------------------|
A|---------------------------------|---------------------------------|
B|5-----------5---5----------------|6-----------8--------------------|

G|---------------------------------|---------------------------------|
D|---------------------------------|---------------------------------|
A|--------2---0--------------------|---------------------------------|
B|5---8---------------10--8--------|6-----------6---6-------8--------|

G|---------------------------------|---------------------------------|
D|---------------------------------|---------------------------------|
A|--------2---0--------------------|---------------------------------|
B|5---8---------------10--8--------|6-----------6---6-------8--------|

G|---------------------------------|---------------------------------|
D|---------------------------------|---------------------------------|
A|--------2---0--------------------|---------------------------------|
B|5---8---------------10--8--------|6-----------6---6-------8--------|

G|---------------------------------|---------------------------------|
D|---------------------------------|---------------------------------|
A|--------2---0--------------------|---------------------------------|
B|5---8-------------------8--------|6---------------6-------8--------|

Outro :
G|---------------------------------|---------------------------------|
D|---------------------------------|---------------------------------|
A|3-----------0--------------------|---------------------------------|
B|----5---8-----------10--8--------|6---------------8----------------|

G|---------------------------------|---------------------------------|
D|---------------------------------|---------------------------------|
A|---------------------------------|---------------------------------|
B|1--------------------------------|---------------------------------|

            
            
Suggest correction
Creating personal tab
Creating personal tab
You can edit any tab online and save it as your Personal.

You can edit, replace or remove any tab part or add personal notes – all changes will be seen only by you.

Personal tabs can be accessed anytime from any device, even offline.
Learn more »
Give kudos to tab author, rate the tab!
1 2 3 4 5
comments
print report bad tab
guest
You may want to rate the tab now too:
select rating
Wanna post a correction for this tab? Suggest correction