Oops, an error
Loading. Please wait.

Your Way Bass Tab

19 views 1 this week
no commentswrite comment
1 2 3 4 5
3 more votes to show rating
add to favorites
launch autoscroll
font size
0
reset
guitar tuner
Autoscroll
slow
fast
+/-
esc
set tempo
stop
Help us to improve Ultimate-Guitar.com Take our survey!
×
Very simple bass tab but there's a really beautiful melody to play on :-)

Intro :
G|---------------------------------|---------------------------------|
D|---------------------------------|---------------------------------|
A|---------------------------------|---------------------------------|
E|0-------0-------0-------0--------|5-------5-------5-------5---3----|

G|---------------------------------|---------------------------------|
D|---------------------------------|---------------------------------|
A|---------------------------------|---------------------------------|
E|0-------0-------0-------0--------|5-------5-------5-------5--------|

G|---------------------------------|---------------------------------|
D|---------------------------------|---------------------------------|
A|5-------5------------------------|5-------5------------------------|
E|----------------3-------3--------|----------------3-------3--------|

G|------------------------4--------|---------------------------------|
D|----------------5----------------|---------------------------------|
A|5-------5------------------------|---------------------------------|
E|---------------------------------|5-------5-------5-------5---3----|

Verse 1 :
G|---------------------------------|---------------------------------|
D|---------------------------------|---------------------------------|
A|---------------------------------|---------------------------------|
E|0-------0-------0-------0--------|5-------5-------5-------5--------|

G|---------------------------------|---------------------------------|
D|---------------------------------|---------------------------------|
A|---------------------------------|---------------------------------|
E|0-------0-------0-------0--------|5-------5-------5-------5--------|

G|---------------------------------|---------------------------------|
D|---------------------------------|---------------------------------|
A|5-------5------------------------|5-------5------------------------|
E|----------------3-------3--------|----------------3-------3--------|

G|------------------------4--------|---------------------------------|
D|----------------5----------------|---------------------------------|
A|5-------5------------------------|---------------------------------|
E|---------------------------------|5-------5-------5-------5---3----|

G|---------------------------------|---------------------------------|
D|---------------------------------|---------------------------------|
A|---------------------------------|---------------------------------|
E|0-------0-------0-------0--------|5-------5-------5-------5--------|

G|---------------------------------|---------------------------------|
D|---------------------------------|---------------------------------|
A|---------------------------------|---------------------------------|
E|0-------0-------0-------0--------|5-------5-------5-------5---0----|

G|---------------------------------|---------------------------------|
D|---------------------------------|---------------------------------|
A|5-------5------------------------|5-------5------------------------|
E|----------------3-------3--------|----------------3-------3--------|

G|------------------------4--------|---------------------------------|
D|----------------5----------------|---------------------------------|
A|5-------5------------------------|---------------------------------|
E|---------------------------------|5-------5-------5-------5--------|

Chorus :
G|---------------------------------|---------------------------------|
D|---------------------------------|---------------------------------|
A|----------------5-------5--------|----------------5-------5--------|
E|3-------3------------------------|3-------3------------------------|

G|---------------------------------|---------------------------------|
D|--------5------------------------|---------------------------------|
A|----------------5-------5--------|---------------------------------|
E|3--------------------------------|5-------5-------5-------5---3----|

Interlude :
G|---------------------------------|---------------------------------|
D|---------------------------------|---------------------------------|
A|---------------------------------|---------------------------------|
E|0-------0-------0-------0--------|5-------5-------5-------5---7----|

G|---------------------------------|---------------------------------|
D|---------------------------------|---------------------------------|
A|---------------------------------|---------------------------------|
E|0-------0-------0-------0--------|5-------5-------5-------5--------|

G|---------------------------------|---------------------------------|
D|---------------------------------|---------------------------------|
A|5-------5------------------------|5-------5------------------------|
E|----------------3-------3--------|----------------3-------3--------|

G|------------------------4--------|---------------------------------|
D|----------------5----------------|---------------------------------|
A|5-------5------------------------|---------------------------------|
E|---------------------------------|5-------5-------5-------5---3----|

Verse 2 :
G|---------------------------------|---------------------------------|
D|---------------------------------|---------------------------------|
A|------------------------7--------|---------------------------------|
E|---------------------------------|5-------5-------5-------5--------|

G|---------------------------------|---------------------------------|
D|---------------------------------|---------------------------------|
A|---------------------------------|---------------------------------|
E|0-------0-------0-------0--------|5-------5-------5-------5---0----|

G|---------------------------------|---------------------------------|
D|---------------------------------|---------------------------------|
A|5-------5------------------------|5-------5------------------------|
E|----------------3-------3--------|----------------3-------3--------|

G|------------------------4--------|---------------------------------|
D|----------------5----------------|---------------------------------|
A|5-------5------------------------|---------------------------------|
E|---------------------------------|5-------5-------5-------5--------|

Chorus :
G|---------------------------------|---------------------------------|
D|---------------------------------|---------------------------------|
A|----------------5-------5--------|----------------5-------5--------|
E|3-------3------------------------|3-------3------------------------|

G|---------------------------------|---------------------------------|
D|--------5------------------------|---------------------------------|
A|----------------5-------5--------|---------------------------------|
E|3--------------------------------|5-------5-------5-------5---5----|

G|---------------------------------|---------------------------------|
D|---------------------------------|---------------------------------|
A|----------------5-------5--------|----------------5-------5--------|
E|3-------3------------------------|3-------3------------------------|

G|---------------------------------|---------------------------------|
D|--------5------------------------|---------------------------------|
A|----------------5-------5--------|---------------------------------|
E|3--------------------------------|5-------5-------5-------5---3----|

Interlude (outro) :
G|---------------------------------|---------------------------------|
D|---------------------------------|---------------------------------|
A|---------------------------------|---------------------------------|
E|0-------0-------0-------0--------|5-------5-------5-------5---7----|

G|---------------------------------|---------------------------------|
D|---------------------------------|---------------------------------|
A|---------------------------------|---------------------------------|
E|0-------0-------0-------0--------|5-------5-------5-------5--------|

G|---------------------------------|---------------------------------|
D|---------------------------------|---------------------------------|
A|5-------5-------5-------5--------|5-------5-------5-------5--------|
E|---------------------------------|---------------------------------|

G|---------------------------------|---------------------------------|
D|--------9--11---12---------------|---------------------------------|
A|5--------------------------------|---------------------------------|
E|---------------------------------|---------------------------------|
Suggest correction
Give kudos to tab author, rate the tab!
1 2 3 4 5
comments
print report bad tab
guest
You may want to rate the tab now too:
select rating
Wanna post a correction for this tab? Suggest correction