Oops, an error
Loading. Please wait.

One Night Only bass

94 views 1 this week
1 commentread comment
1 2 3 4 5
3 more votes to show rating
add to favorites
×
Save as Personal and add changes to this tab that will be seen only by you. Learn more ›
×
You can save this tab as Personal to edit and correct it or add notes. All changes will be seen only by you. Learn more »
launch autoscroll
font size
0
reset
guitar tuner
edit
Autoscroll
slow
fast
+/-
esc
set tempo
stop
Paul ROBINSON
One Night Only



INTRO: (play x2)
G D/F# Em  - C G D 
G|----------------------|---------------------||----------|-
D|-----------4-2r--2-2--|---------------------||----------|-
A|-------5r-------------|-0-2-3r--3-------5r--||-5-7-5----|- x2
E|/3r--3----------------|-----------3p--3-----||-------7-5|- 
 
VERSE 1: 00:24
G|----------------------|---------------------||----------|-
D|-----------4-2r--2-2--|---------------------||----------|-
A|-------5r-------------|-0-2-3r--3-------5r--||-5-7-5----|- 
E|-3r--3----------------|-----------3p--3-----||-------7-5|- 
G     D/F#              Em 
Across a dark and crowded room,
     C    G          D

It's the first time that I've seen you, 
G|----------------------|---------------------||----------|-
D|-----------4-2r--2-2--|---------------------||----------|-
A|-------5r-------------|-0-2-3r--3-------5r--||-7--5-----|- 
E|-3r--3----------------|-----------3p--3-----||------(5)-|- 
G   D/F#         Em

I can see it in your eyes,
    C     G      D

Just a girl with no disguise

Pre-chorus: 00:46
G|--------------|--------------|--------------|-----7--------|-
D|--------------|--------------|--------------|--------------|-
A|------------3-|-5r--5-5--7-5-|------------3-|-5r--5--------|-
E|-5r--5-5--5---|--------------|-5r--5-5--5---|--------------|- 
   Am7                 D

and I'm standing here, you're eyes before me
 Am7                           D

twists and turns of knives that I can't see


CHORUS: 00:57 (play x1) 
G|---------------|------------|---------------------||----------|-
D|---------------|--------2r--|---------------------||----------|-
A|-0-2-3r--3-----|---2--2-----|-0-2-3r--3-------5r--||-5-7-5----|- 
E|-----------3p--|-3----------|-----------3p--3-----||-------7-5|- 
      C         G
and I don't want one night only 
B7           Em

for the rest of my life
     C        G   D

I don't want one night only tonight

VERSE 2: 01:09
G|----------------------|---------------------||----------|-
D|-----------4-2r--2-2--|---------------------||----------|-
A|-------5r-------------|-0-2-3r--3-------5r--||-5-7-5----|- 
E|-3r--3----------------|-----------3p--3-----||-------7-5|- 
G        D/F#              Em

I can't see which steps to take,
   C   G        D

and my feet, how they hesitate, 
G|----------------------|---------------------||----------|-
D|-----------4-2r--2-2--|---------------------||----------|-
A|-------5r-------------|-0-2-3r--3-------5r--||-7--5-----|- 
E|-3r--3----------------|-----------3p--3-----||------(5)-|- 
G   D/F#        Em

Been along this road before,
   C     G    D

To the same unopened door

Pre-chorus: 01:32
G|--------------|--------------|--------------|-----7--------|-
D|--------------|--------------|--------------|--------------|-
A|------------3-|-5r--5-5--7-5-|------------3-|-5r--5--------|-
E|-5r--5-5--5---|--------------|-5r--5-5--5---|--------------|- 
   Am7                 D

and I'm standing here, you're eyes before me
 Am7                           D

twists and turns of knives that I can't see

CHORUS: 01:43 (play x2)                                             |2
G|---------------|------------|---------------------||----------|-
D|---------------|--------2r--|---------------------||----------|-
A|-0-2-3r--3-----|---2--2-----|-0-2-3r--3-------5r--||-5-7-5----|- x2
E|-----------3p--|-3----------|-----------3p--3-----||-------7-5|- 
       C         G
(And) I don't want one night only 
B7           Em

for the rest of my life
     C        G   D

I don't want one night only tonight

MIDDLE 8 (Break): 02:06
G|--------------|-------------|--------------|-----------|-
D|-0-2-3r--3-3r-|-5-3---------|--------------|-----------|-
A|--------------|-----3r--3-3-|-5-3----------|-----------|- 
E|--------------|-------------|-----3r--3-3r-|-0-3--3-3r-|- 
F            C                    G

Sometime you take, what you can get, with never a thought


G|--------------|-------------|-------------|----------------||-
D|-0-2-3r--3-3r-|-5-3---------|-------------|----------------||-
A|--------------|-----3r--3-3-|-3-5---------|---3-5r--5------||- 
E|--------------|-------------|-----5r--5-5-|-5---------(3r)-||- 
F             C                      Am7

And when fate turns its back on you, you've paid the price of love and you've been >

D                      G >
bought, yes you've been bought


LEAD (Solo):
02:29 (play x2) …………………………………………………………………

> G D/F# Em  - C G D 
G|----------------------|---------------------||----------|-
D|-----------4-2r--2-2--|---------------------||----------|-
A|-------5r-------------|-0-2-3r--3-------5r--||-5-7-5----|- 
E|-3r--3----------------|-----------3p--3-----||-------7-5|- 

G|----------------------|---------------------||----------|-
D|-----------4-2r--2-2--|---------------------||----------|-
A|-------5r-------------|-0-2-3r--3-------5r--||-7--5-----|- 
E|-3r--3----------------|-----------3p--3-----||------(5)-|- 

Pre-chorus/Bridge: 02:52
G|--------------|--------------|--------------|--------------|-
D|--------------|--------------|--------------|--------------|-
A|------------3-|-5r--5-5--7-5-|------------3-|-5r--5-\-(2)--|-
E|-5r--5-5--5---|--------------|-5r--5-5--5---|--------------|- 
Am7                  D

and I'm standing here, you're eyes before me
 Am7                           D

twists and turns of knives that I can't see
G|--------------|--------------|---------------------||-
D|------------0-|-2r--2-2--0-2-|---------------------||-
A|-2r--2-2--2---|--------------|-3r--3-------5r--5-5-||-
E|--------------|--------------|-------3r--3---------||- 
    Bm      Em

I'll Put my past behind me
   C         G    D

and learn to face my destiny


CHORUS: 03:14 (play x2) (SOFT PLAY)
G|---------------|------------|---------------------||----------|-
D|---------------|--------2r--|---------------------||----------|-
A|-0-2-3r--3-----|---2--2-----|-0-2-3r--3-------5r--||-5-7-5----|- x2
E|-----------3p--|-3----------|-----------3p--3-----||-------7-5|- 
      C         G
and I don't want one night only 
B7           Em

for the rest of my life     (I don’t want – I don’t want)
     C        G   D

I don't want one night only tonight


Outro: 04:00 (repeat and fade out...)
G|-------------|-------------||-------------|------------||
D|-------------|-------------||-------------|------------||
A|-0-2-3r--3-3-|-0-x-3r--3-3-||-3-5---------|------------||
E|-------------|-3-----------||-----3r--3-3-|-0--3r--3-3-|| 
                  C 
For the rest of my life
                  G 
For the rest of my life
                  C 
For the rest of my life
                  G 
For the rest of my life
                  C              G

For the rest of my life ......(slow up & end on...)

            
            
Suggest correction
Creating personal tab
Creating personal tab
You can edit any tab online and save it as your Personal.

You can edit, replace or remove any tab part or add personal notes – all changes will be seen only by you.

Personal tabs can be accessed anytime from any device, even offline.
Learn more »
Give kudos to tab author, rate the tab!
1 2 3 4 5
comments
print report bad tab
1 comment total.
0 reply
Bruno Frenchy 4,686 May 24, 2016 03:18 AM

Here is one of Paul Robinson's original British Folk Rock song (Recorded in Newcastle upon Tyne - UK.

Lead guitarist and singer for a North East British band named "French Connexion", Paul Robinson started a solo carrer writing his own originals...

Enjoy,

guest
You may want to rate the tab now too:
select rating
Wanna post a correction for this tab? Suggest correction