Oops, an error
Loading. Please wait.

Muddy Water Blues Tab

11,619 views 60 this week
1 commentread comment
1 2 3 4 5
accurate
x 5
add to favorites
launch autoscroll
font size
0
reset
how to read this tab
guitar tuner
Tab Pro tools
  • play this tab
  • loop segment
  • change instrument
  • show fretboard
  • metronome
Autoscroll
slow
fast
+/-
esc
set tempo
stop
#----------------------------------PLEASE NOTE---------------------------------#
#This file is the author's own work and represents their interpretation of the #
#song. You may only use this file for private study, scholarship, or research. #
#------------------------------------------------------------------------------##
From: Alexander Backes 
Date: Thu, 7 Sep 1995 15:38:16 -0600

Muddy Water Blues

(Paul Rodgers: 'Muddy Water Blues - A Tribute To Muddy Waters')

1x Intro

Walking alone in the rain,
water in my shoes.
All I can feel is this pain in my heart
and this Muddy Water Blues.

1/2x Intro

River weap for me,
nothing left to loose,
under the weeping willow tree
with these Muddy Water Blues. (sing it now)

        A           E
CHORUS:	Muddy Water Blues
	Muddy Water Blues
	Muddy Water Blues
        B (B7)
	Uh, turns me to loose.

Please give me some shelter,
that's something I can use.
Way down here in the Delta
with these Muddy Water Blues.

Women and Whiskey will frame you,
it's no good looking for clues.
You got them, who can blame you,
Muddy Water Blues.

CHORUS:	Muddy Water Blues
	Muddy Water Blues
	Muddy Water Blues
	Uh, turns me to loose.

Yeah, yeah, yeah.

2x Intro

SOLO (Buddy Guy)

Try to get free from you, Baby,
oh, but I'm stuck like glue.
Try to get free from you, Baby,
and these Muddy Water Blues.

3x Uh, uh, uh, Muddy Water Blues.

This is a slow Blues in E-major. The Intro is played while Paul sings. The
chorus is accompanied with the noted chords.
Have fun playing !

INTRO:

E|-------------------|--------------------|--------------|--------------|
H|----3--5-----------|-----3--5-----------|-----3--5-----|-----3--5-----|
G|--4-------2--0-----|--4--------2--0-----|--4--------2--|--4--------2--|
D|----------------2--|-----------------2--|--------------|--------------|
A|-------------------|--------------------|--------------|--------------|
E|-------------------|--------------------|--------------|--------------|


E|-------------------|
H|----3--5-----------|
G|--4-------2--0-----|
D|----------------2--|
A|-------------------|
E|-------------------|


alexander.backes@uni-tuebingen.de
comments
print report bad tab
1 comment total.
0 reply
timothydaniellknight27 wrote on September 6 2015, 08:12 pm

One of my all time favorite songs ever written!!!!

I want to post or [tab]
guest
You may want to rate the tab now too:
select rating
Please do not post tabs as comments. Select "correction" instead!