Oops, an error
Loading. Please wait.

Walk In My Shadow Bass Tab

1,820 views 9 this week
2 commentsread comments
1 2 3 4 5
excellent!
x 2
add to favorites
launch autoscroll
font size
0
reset
guitar tuner
Tab Pro tools
  • play this tab
  • loop segment
  • change instrument
  • show fretboard
  • metronome
Autoscroll
slow
fast
+/-
esc
set tempo
stop
Contributor
Difficulty
g-------------------------------|
d-------5--5--------3-----------|
a-------------3--5--------------|
e3--3--------------------6---3--| x4

g-------5--5--------3----------|
d-------------3--5-------------|
a3--3--------------------6---3-|
e------------------------------|x2

g------------------------------|
d-------5--5--------3----------|
a-------------3--5-------------|
e3--3--------------------6---3-|x2

g-------7--7--------5----------|
d-------------5--7-------------|
a5--5--------------------8---5-|
e------------------------------|x1

g-------5--5--------3----------|
d-------------3--5-------------|
a3--3--------------------6---3-|
e------------------------------|x1

g------------------------------|
d-------5--5--------3----------|
a-------------3--5-------------|
e3--3--------------------6---3-|x1

g-------------------------------|
d-------------------------------|
a5---5---5---5------5--3--------|
e--------------------------6--3-|
a
e
comments
We did not receive enough feedback on this tab! Please rate:
print report bad tab
1 2 3 4 5
2 comments total.
0 reply
david.boyer.927 wrote on September 26 2015, 07:40 pm

Sounds good to me. Thanks for this.

0 reply
david.boyer.927 wrote on September 26 2015, 07:54 pm, edited on October 16 2015, 04:19 pm

The Turnaround could be triplets played on A string (555 333 111 000)

I want to post or [tab]
guest
You may want to rate the tab now too:
select rating
Please do not post tabs as comments. Select "correction" instead!