Oops, an error
Loading. Please wait.

50 Ways To Leave Your Lover Bass Tab

version 1
version 1

Whole song

Interactive

10,306 views 33 this week
1 commentread comment
1 2 3 4 5
accurate
x 8
add to favorites
launch autoscroll
font size
0
reset
guitar tuner
Autoscroll
slow
fast
+/-
esc
set tempo
stop
Help us to improve Ultimate-Guitar.com Take our survey!
×
Difficulty
novice
You probably see this a lot but: my first tab, so, don't be mad if it's wrong, somewhere.

Tabbed By: AugustJazz


G|--------5-4/9-8-11-4-----------------------------| 
D|--5/12-----------------2-1----------2/7--2-------| 
A|------------------------------3-2----------------| 
E|-------------------------------------------------| 

G|--------5-4/9-8-11-4------------------------------------| 
D|--5/12-----------------2-1----------2/7--2----2/7--2----| 
A|------------------------------3-2-----------------------| 
E|--------------------------------------------------------| 

G|-----------3333------5555-----------------------------| 
D|----5555-----------------------555--------------------| 
A|------------------------------------------------------| 
E|------------------------------------------------------| 

G|---------------3333------5555----------------------------| 
D|--345-5555-----------------------555---------------------| 
A|---------------------------------------------------------| 
E|---------------------------------------------------------| 

G|---------------3333------5555----------------------------| 
D|--345-5555-----------------------555---------------------| 
A|---------------------------------------------------------| 
E|---------------------------------------------------------| 

G|---------------3333--------------------------------------| 
D|--345-5555-------------101010/5--------------------------| 
                                    
Suggest correction
comments
print report bad tab
1 comment total.
0 reply
GentlemenJack 10 wrote on July 11 2014, 03:02 am

Pretty sure it goes down to the 'A' on that run down but besides that every thing seems fine, good first tab.

I
I
V
G|--------5-4/9-8-11-4------------------------------------|
D|--5/12-----------------2-0----------2/7--2----2/7--2----|
A|------------------------------3-2-----------------------|
E|--------------------------------------------------------|

I think that's it.

guest
You may want to rate the tab now too:
select rating
Wanna post a correction for this tab? Suggest correction