Oops, an error
Loading. Please wait.

Horace And Pete tab

version 1
version 1

Whole song

Interactive

1,318 views 6 this week
1 commentread comment
1 2 3 4 5
x 3
add to favorites
×
Save as Personal and add changes to this tab that will be seen only by you. Learn more ›
×
You can save this tab as Personal to edit and correct it or add notes. All changes will be seen only by you. Learn more »
launch autoscroll
font size
0
reset
how to read this tab
guitar tuner
edit
Autoscroll
slow
fast
+/-
esc
set tempo
stop
Author
Tune low E string up to F.
Tuning: FADGBe


E|-3--5--8--10------3--5--8--10------3h5-8-10-10/12-10-8-------5----8-8-8-7-5-------------0--0-|
B|-0----------------0----------------0------------------------6----6----------6\----1--1--1--1-|
G|-4--5--9--10------4--5--9--10------4/5-9-10-10/12-10-9----/5----5-----------------0--0-------|
D|---------------------------------------------------------------------------------------------|
A|---------------------------------------------------------------------------------------------|
F|--------------------------------------------------------0----------------------2-------------|


e|-1p0---0-------------------------------------------------------------------------------------|
B|-----3---1p0---1p0--------------(12)--------1--1--1-1-1--------------------------------------|
G|-------------2-----2p0---------(12)---------0--0--0-0-0--------------------------------------|
D|-----------------------3p0-------------------------------------------------------------------|
A|---------------------------------------------------------------------------------------------|
F|----------------------------------------2----------------------------------------------------|

Last time play this (when Simon sings the harmonised "Horace and Pete" line):

e|-1p0---0----------------------------------8--------------------------------------------------|
B|-----3---1p0---1p0--------------(12)----------5----------------------------------------------|
G|-------------2-----2p0---------(12)-----0----------------------------------------------------|
D|-----------------------3p0-------------------------------------------------------------------|
A|---------------------------------------------------------------------------------------------|
F|---------------------------------------------------------------------------------------------|


*************************
|/ - slide up
|\ - slide down
|h - hammer-on
|p - pull-off
|()- natural harmonics
************************


Lyrics:

Hell no
I can’t complain about my problems
I’m OK the way things are
I pull my stool up to the bar
At Horace and Pete’s

Sometimes I wonder
Why do we tear ourselves to pieces?
I just need some time to think
Or maybe I just need a drink
At Horace & Pete’s
Horace and Pete

            
            
Suggest correction
Creating personal tab
Creating personal tab
You can edit any tab online and save it as your Personal.

You can edit, replace or remove any tab part or add personal notes – all changes will be seen only by you.

Personal tabs can be accessed anytime from any device, even offline.
Learn more »
Give kudos to tab author, rate the tab!
1 2 3 4 5
comments
print report bad tab
1 comment total.
0 reply
joeyroversi 10 May 12, 2017 11:21 AM

Thanks this makes it a lot easier

guest
You may want to rate the tab now too:
select rating
Wanna post a correction for this tab? Suggest correction