Oops, an error
Loading. Please wait.

Horace And Pete Theme tab

version 1
version 1

Whole song

4,423 views 39 this week
2 commentsread comments
1 2 3 4 5
x 11
add to favorites
×
Save as Personal and add changes to this tab that will be seen only by you. Learn more ›
×
You can save this tab as Personal to edit and correct it or add notes. All changes will be seen only by you. Learn more »
launch autoscroll
font size
0
reset
how to read this tab
guitar tuner
edit
Autoscroll
slow
fast
+/-
esc
set tempo
stop
Author
Difficulty
HORACE AND PETE THEME by Paul Simon
Tabbed by: Macejko
Here are tabs to the beautiful main theme from the amazing Louis C.K.'s webseries Horace
and Pete. No need to adjust tuning.
Tuning: Standard

e|-3--5--8--10------3--5--8--10------3-5-8-10s12-10-8-----5----8-8-8-7-5--\----0--0---|
B|-0----------------0----------------0--------------------6----6---------8--1--1--1---|
G|-4--5--9--10------4--5--9--10------4-5-9-10s12-10-9-----5----5------------0---------|
D|-------------------------------------------------------7------------------2---------|
A|-----------------------------------------------------/8-------------------3---------|
E|------------------------------------------------------------------------------------|

e|-1-0---0----------------------------------------------------------------------------|
B|-----3---1-0---1-0---0-----------(12)-----------------------------------------------|
G|-------------2-----2-0-0-0---(12)---------------------------------------------------|
D|-----------------------3-0--------------------2-------------------------------------|
A|-------------------------------------------3----3-----------------------------------|
E|-----------------------------------------3-3----------------------------------------|

************************************
| s   Slide
| /   Slide up
| \   Slide down
| ()  Natural Harmonics
************************************
Suggest correction
Creating personal tab
Creating personal tab
You can edit any tab online and save it as your Personal.

You can edit, replace or remove any tab part or add personal notes – all changes will be seen only by you.

Personal tabs can be accessed anytime from any device, even offline.
Learn more »
comments
print report bad tab
2 comments total.
0 reply
alexsouthey 10 Apr 22, 2016 09:37 AM

Thanks so much! Nailed it!

+4 reply
Bloodbarn 34 May 02, 2016 06:45 PM

I was skeptical about someone getting it right. Thank you so much. This is so beautiful. And this show is the best thing that happened to TV since Twin Peaks.

guest
You may want to rate the tab now too:
select rating
Wanna post a correction for this tab? Suggest correction