Oops, an error
Loading. Please wait.

You Can Call Me Al bass

version 2
version 2

Whole song

Interactive

61,051 views 72 this week
2 commentsread comments
1 2 3 4 5
x 27
add to favorites
×
Save as Personal and add changes to this tab that will be seen only by you. Learn more ›
×
You can save this tab as Personal to edit and correct it or add notes. All changes will be seen only by you. Learn more »
launch autoscroll
font size
0
reset
guitar tuner
edit
Autoscroll
slow
fast
+/-
esc
set tempo
stop
SONG: You Can Call Me Al
ARTIST: Paul Simon
ALBUM: Graceland (1986)

Tons of fun to play, probably my favorite Paul Simon solo song. The chorus is damn catchy!

Tabbed by Kingurth. kingurth@gmail.com


[Verse]
G|------------------------------------------------------|
D|------------------------------------------------------|
A|------------0--3----------------------1--3-----3------|
E|-1---1---1-------------------3--3--3------------------|

I think the first time around he only plays the lower F twice, and then plays it three 
for the rest of the song.


[Chorus]
G|--------------------------------------------------------|
D|--------------------------------------------------------|
A|----------0--3-------------0--3-------------1--3--3-----|
E|-1--1--1----------1--1--1----------3--3--3--------------|


[MINI-SOLO:]
G|---3--5-------------------------------------|
D|---------0--3--5--------0-------------------|
A|------------------1--3-----1----------------|
E|------------------------------3--3--5--3----|

G|-------------------------------------------5--3-|
D|----------------------------------5--3--0-------|
A|-3--5--5--3--------------5--3--0----------------|
E|-------------3--5--3--1-------------------------|

Enjoy!

            
            
Suggest correction
Creating personal tab
Creating personal tab
You can edit any tab online and save it as your Personal.

You can edit, replace or remove any tab part or add personal notes – all changes will be seen only by you.

Personal tabs can be accessed anytime from any device, even offline.
Learn more »
comments
print report bad tab
2 comments total.
-1 reply
comeondude 10 Aug 11, 2008 04:56 AM

seems good, but I won't rate yet, because I am not sure if this is the right solo ;)

0 reply
ponchopup 10 Jan 29, 2015 06:35 AM

Get's the basic rhythms of the song right and is in the right octave, so I'd say it's good to figure out the basics of the song.

guest
You may want to rate the tab now too:
select rating
Wanna post a correction for this tab? Suggest correction