Oops, an error
Loading. Please wait.

Broken Stones ukulele

version 1
version 1

Whole song

962 views 3 this week
no commentswrite comment
1 2 3 4 5
3 more votes to show rating
add to favorites
×
Save as Personal and add changes to this tab that will be seen only by you. Learn more ›
×
You can save this tab as Personal to edit and correct it or add notes. All changes will be seen only by you. Learn more »
launch autoscroll
font size
0
reset
transpose
0
reset
simplify chords
display chords
guitar tuner
edit
Autoscroll
slow
fast
+/-
esc
set tempo
stop
Strumming
There is no strumming pattern for this song yet. and get +5 IQ
Song: Broken Stones
Artist: Paul Weller
Tabber: Victor Roda

Example:

Capo 3
All chords relative to capo

|Intro|

---3----0-3--------------2-----3-2----2h3-3-0----0---0------------3---0-3-------|
---3----1-3--------------3-----3-3----3---3-1----1h3-1------------3---1-3-------|
---0----0-0--------------2-----0-2----2---2-0----0---0-------0----0---0-0-------|
---0----2-0--------------0-----0-0----0---0-2----2---2---0-2---2--0---2-0-------|
---2----0-2-------0-3-0--------2------------0----0---0------------2---0-2-------|
---3------3-----3--------------3----------------------------------3-----3-------|

|Verse|

                       G Am7~G                      D        G~D
Like pebbles on the beach,      kicked around displaced by feet
          Am7        Asus4~Am7              G Am7~G
Oh like broken stones, we're trying to get home.


                   G Am7~G                              D    G~D
Like a loser ís reach,     too slow and short to hit the peaks,
         Am7         Asus4~Am7              G Am7~G
Yeah so lost and alone, yeah trying to get home.

|Chorus|

                   Am7 Asus4~Am7                        G Am7~G
As another bit shatters,       another little bit gets lost,
                        Am7 Asus4~Am7               A     G-D
and what else really matters,       oh at such a cost.

|Verse|
                    G Am7~G                      D        G~D
Like a loser ís reach,    too slow and short to hit the peaks
              Am7        Asus4~Am7                   G Am7~G
Yeah he ís lost and alone,        yeah like broken stones.

|Break|


---3----0-3--------------2-----3-2----2h3-3-0----0---0------------3---0-3-------|
---3----1-3--------------3-----3-3----3---3-1----1h3-1------------3---1-3-------|
---0----0-0--------------2-----0-2----2---2-0----0---0-------0----0---0-0-------|
---0----2-0--------------0-----0-0----0---0-2----2---2---0-2---2--0---2-0-------|
---2----0-2-------0-3-0--------2------------0----0---0------------2---0-2-------|
---3------3-----3--------------3----------------------------------3-----3-------|


|Chorus|

                   Am7 Asus4~Am7                        G Am7~G
As another bit shatters,       another little bit gets lost,
                        Am7 Asus4~Am7               A     G-D
and what else really matters,       oh at such a cost.

|Verse|

                       G Am7~G                      D        G~D
Like pebbles on the beach,      kicked around displaced by feet
          Am7        Asus4~Am7              G Am7~G
Oh like broken stones, we're trying to get home.


                   G Am7~G                              D    G~D
Like a loser ís reach,     too slow and short to hit the peaks,
         Am7         Asus4~Am7              G Am7~G
Yeah so lost and alone, yeah trying to get home.
              Am7 Asus4~Am7                 G Am7~G
trying to get home,          trying to get home.
                Am7 Asus4~Am7                 G Am7~G
like broken stones,          trying to get home.




|Chords|

 G Am7 Asus4 D   A
-0--0----0---2---0----|
-0--1----3---3---2----|
-0--0----0---2---2----|
-0--2----2---0---2----|
-2--0----0-------0----|
-3--------------------|

            
            
Suggest correction
Creating personal tab
Creating personal tab
You can edit any tab online and save it as your Personal.

You can edit, replace or remove any tab part or add personal notes – all changes will be seen only by you.

Personal tabs can be accessed anytime from any device, even offline.
Learn more »
Give kudos to tab author, rate the tab!
1 2 3 4 5
comments
print report bad tab
guest
Wanna post a correction for this tab? Suggest correction