Oops, an error
Loading. Please wait.

One X One Tab

1,761 views 1 this week
1 commentread comment
1 2 3 4 5
excellent!
x 1
add to favorites
launch autoscroll
font size
0
reset
how to read this tab
guitar tuner
Tab Pro tools
  • play this tab
  • loop segment
  • change instrument
  • show fretboard
  • metronome
Autoscroll
slow
fast
+/-
esc
set tempo
stop
Difficulty
advanced
Song:one x one
Artist:Paul Weller
Album:Illumination
Tabbed by:Alex Cox

Chords used
Bm(x24432
F#m/A(xo4222)
Gmaj7(xx5432)
Bm6(x13020)
Gmaj7*(3x0002)
Em(022000)
G(320003)
D(xx0232)
F#m(244222)
F#11(244300)
F#11/G(244300)
D*(xx0232)
Csus2(x3x032)
G5(3X0033
B7(x1313x)


Tablature Ledgend

H   Hammer on
P   Pull off
V   Vibtaro
S   Slide   (All slides Legato Slides)
B   Bend
R   Release


Intro  (Fingerstyle)

e-2------2------2----2-----|
B---3------3------2---2----|
G-----4------4------2---4--|
D------4-------4-----------|
A-2-2----2-2-----0-0--0-0--|
E--------------------------|       X2


Gmaj7     F#m/A     Bm6

Verse 1


Bm
Share your dreams
                F#m/A
Give us all the beam we need
                 Gmaj7*
Like lights in a ballroom scene
             F#m/A         Bm6
Going on one times one


Verse 2

Bm
Shed your chains
                      F#m/A
To earth like dew and all remain
             Gmaj7*
For ever in another vein
                 F#mA             Bm6
As you slip into another stream
   Bm
Oh give your love
                 F#m/A
Give us everything you've got
                       Gmaj7*
The worlds a better place for that
                   F#m/A     Bm6
When you have love to give


Chorus

Em
Don't fear not
G                  D        F#m
Not where you tread
Em
It's all there
G                     F#11    F#11/G
You,re lying there

Verse 3

Bm
Hear that sigh
                  F#m/A
For all of us who wait in line
                Gmaj7*
Waiting for the words to rhyme
                       F#m/A        Bm6
Bringing on a brand new day
   Bm
Oh give your love
                 F#m/A
Give us everything you've got
                    Gmaj7*
The worlds a better place for that
                   F#m/A     Bm6
When you have love to give

Em   G   D   F#m


Chorus

Em
Don't fear not
G                  D
Not where you tread
Em
It's all there
G              D   F#m
I'm lying there
Em
Don't fear not
G                  F#11   F#11/G
Not where you tread


Bridge (Chords written below are appegios)


D   Csus2      G5                  D
       So dance lttle sister dance
    Csus2       G5                 D
       Like you never danced before
    Csus2          G5                   D
       It's just a moment we're going through
    Csus2             G5              D
       Oh it's a new dance that we do
    Csus2   G5                   D
       So sing lttle brother sing
    Csus2        G5           D
       Oh and turn on everyone
    Csus2  G5             D
       Lift are spitis high
    Csus2   G5               D   B7
       To a place we need to find


Verse 4

Bm
Share your dreams
                    F#m/A
Give us all the beam we need
                          Gmaj7*
Like electric lights in a ballroom scene
              F#m/A    Bm6
Going on one x one
Bm
Shed your chains
                        F#m/A
To earth like dew and all remain
                 Gmaj7*
Forever in another vein
                 F#m/A
Going on one times one

Outro Solo

e--7-------------------------------------------------------------------------|
B----10b-r-------------------------------------------------------------------|
G--------7---7--9b-r-p-7---7v---------------7--7-----------------------------|
D----------9-------------9-------7--7/9-----7--7-----------------------------|
A---------------------------------------8/9-------9/7p5----5--7--7b--5v------|
E--------------------------------------------------------7---------------7p5-|


e------------------------------------------------10-------------------------|
B---------------------------------------------10----10--12--13--13v--13/15v-|
G-------------------------------7----7--9/11--------------------------------|
D-----------------------7--7h9----9-----------------------------------------|
A---------5---5--7--7/9-----------------------------------------------------|
E--7--5h7---7---------------------------------------------------------------|


e--7------------------------------------------------------------------------|
B-----10--10b--10b----------------------------------------------------------|
G-------------------7--9-9b-r-p7h9--7v--------------------------------------|
D---------------------------------------9--7--9--7--7h9--7------------------|
A-----------------------------------------------------------9s7--5----------|
E-------------------------------------------------------------------7--5h7--|


e-----------------------------10-----------12b-r-p10----10--12--12--12/13---|
B---------------------------------10--12v------------12---------------------|
G--------------------7--9/11------------------------------------------------|
D---------------7h9---------------------------------------------------------|
A--5--5----7/9--------------------------------------------------------------|
E--------7------------------------------------------------------------------|


e--13v--13/15--15--15--15v--15v----------------------------------------------|
B--------------------------------12v-12v-12v-12v-12v-12v-12v-12/10--10/12/12-|
G----------------------------------------------------------------------------|
D----------------------------------------------------------------------------|
A----------------------------------------------------------------------------|
E----------------------------------------------------------------------------|


e--7------------------------------------------------------------------------|
B---------------------------------------------------------------------------|
G----9b--9b--7------------7-----------7-------------------------------------|
D--------------9--7--7h9---------7h9----9--7---7----------------------------|
A----------------------------7h9-------------9---9/7p5---5--7p5--7-b-r-p5---|
E-------------------------------------------------------7-------------------|


e-------------------------|
B-------------------------|
G------------------7------|
D------------------7------|
A--7/8--8v--8v--10------9-|
E-------------------------|


The End
comments
We did not receive enough feedback on this tab! Please rate:
print report bad tab
1 2 3 4 5
1 comment total.
0 reply
super-alz wrote on February 18 2008, 07:52 am

brilliant tab, for a underated classic , thanks

I want to post or [tab]
guest
You may want to rate the tab now too:
select rating
Please do not post tabs as comments. Select "correction" instead!