Oops, an error
Loading. Please wait.

You Do Something To Me Tab

version 1
version 1

Whole song

Interactive

144,595 views 144 this week
8 commentsread comments
1 2 3 4 5
x 32
add to favorites
launch autoscroll
font size
0
reset
how to read this tab
guitar tuner
Autoscroll
slow
fast
+/-
esc
set tempo
stop
Help us to improve Ultimate-Guitar.com Take our survey!
×
Author
Difficulty
intermediate
Artist: Paul Weller
Song: You Do Something To Me
Album: Stanley Road
Tunning: Standard
Tabbed By: INDIE NATION (DaN)

THIS IS ONE OF HIS BEST
I'M PRETTY SURE ITS 100% ACCURATE
THE SOLO DEFINATLY IS 100%
LONG LIVE THE MODFATHER


Chords Used:

     EADgbe    EADgbe
Em:  022000
D:   xx0232
Am:  x02210
Bm:  x24432
C7\G 335353
C7   x35353 or x32310
C    x32010
C\D  xx0010
A7   x02020 or 575655
G    320033 or 355433


[Intro]

let ring                     VERSE BEGINS HERE
e---0-2-3----0-2-3----0-2-3----0-0-2---3-5---2---|
b---0-2-3----0-2-3----0-2-3----0-------------3---|
g---0--------0--------0--------0-------------2---|
D-2--------2--------2--------2---------------0---|
A-2--------2--------2--------2-------------------|
E-0--------0--------0--------0-------------------|


[VERSE 1](Em)            (D)   Am
        You do somthing to me
        Bm              Em
        Something deep inside
                            D   Am
        I'm hanging on the wire
               Bm             Em
        For the love I'll never find
        Em            D     Am
        You do somthing wonderful
             Bm           Em
        Then chase it all away
                    D       Am
        Mixing my e-motions
            Bm             Em
        And throws me back again


[Bridge](Em)           C7/G      Am
       Hanging on the wire, yeah
          C/D            Em
       I'm waiting on a change
       C7                       G
       I'm dancing through the fire
              A7                  C              C/D
       Just to catch a flame and feel real again


[Solo]

  Em                 D   Am         Bm                   Em
e-----------------------------------------------------------------|
b-(15)b17-r15--12-15----------------------------------------------|
g--------------------14~~-----------------12-14b16r14p12----12~~--|
d--------------------------12----12-12h14----------------14-------|
a--------------------------12h14----------------------------------|
E-----------------------------------------------------------------|
                                   D                    Am hold
e-------------------------------------------15-17-17-15---17b19---|
b-----------------------15--17-15--15h17~~------------------------|
g-14b15r14-12-------\16-------------------------------------------|
d-------------14/0------------------------------------------------|
a-----------------------------------------------------------------|
E-----------------------------------------------------------------|
 Bm hold             Em
e-17b19--17h19-17b*--------------|
b--------------------17-15-17~~--|
g--------------------------------|
d--------------------------------|
a--------------------------------|
E--------------------------------|
                                                      (C7\G)
e-------12----12--------------------------------------|
b-12h15----15----15b17~~-r15--------------------------|
g-----------------------------14b16r14p12----14--12~~-|
d-----------------------------------------14----------|
a-----------------------------------------------------|
E-----------------------------------------------------|


[Bridge](Em)           C7/G      Am
       Hanging on the wire, yeah
          C/D            Em
       I'm waiting on a change
       C7                       G
       I'm dancing through the fire
              A7                  C              C/D
       Just to catch a flame and feel real again

[VERSE 2] Em             D     Am
        You do somthing to me
         Bm               Em
        Somewhere deep inside
                          D     Am
        I'm hoping to get close to
          Bm             Em
        A peace i cannot find


[Bridge 2] (Em)                C7/G      Am
         Dancing through the fire, yeah
         C/D               Em
         Just to catch a flame
         C7            G
         Just to get close to
               A7             C7            C/D Em
         Just close enough to tell you that
                          D     Am
         You do something to me
         Bm                 Em
         Something deep inside


[Outro] let ring (finish on Em or repeat to fade)

e---0-2-3----0-2-3----0-2-3----0-2-3--0-----|
b---0-2-3----0-2-3----0-2-3----0-2-3--0-----|
g---0--------0--------0--------0------0-----|
D-2--------2--------2--------2--------2-----|
A-2--------2--------2--------2--------2-----|
E-0--------0--------0--------0--------0-----|

THATS IT ALL THERE
HOPE YOU ALL LIKE IT
CHEERS


Tab Ledgend:

b= bend up
r= ring
b*= bend up a quater note
h= hammer on
p= pull off
~= vibrato
\= slde up
/= slide down
Suggest correction
comments
print report bad tab
8 comments total. Showing first comments.
+2 reply
Sgt. Pepper 87 Jan 21, 2007 12:38 PM

Probally the creepest intro I've ever heard but amazing...long live the Modfather!

+2 reply
super-alz 10 Jul 26, 2007 10:24 AM

haunting intro amazing song, tabs spot on !!!!! thanks

+2 reply
rookieguitar 46 Aug 31, 2007 10:39 AM

its betta wit b7 than bm but still grt tab

guest
You may want to rate the tab now too:
select rating
Wanna post a correction for this tab? Suggest correction