Oops, an error
Loading. Please wait.

You Do Something To Me bass

version 2
version 2

Whole song

Interactive

469 views 12 this week
1 commentread comment
1 2 3 4 5
2 more votes to show rating
add to favorites
×
Save as Personal and add changes to this tab that will be seen only by you. Learn more ›
×
You can save this tab as Personal to edit and correct it or add notes. All changes will be seen only by you. Learn more »
launch autoscroll
font size
0
reset
guitar tuner
backing track
0:00
0:00
edit
Autoscroll
slow
fast
+/-
esc
set tempo
stop
Author
Difficulty
PAUL WELLER
YOU DO SOMETHING TO ME
Key: Em – Tempo: 151 bpm

Piano intro: 00:01
G|------------|    |---------|-
D|-------5----|    |---------|-
A|-7--9-------| x3 |-----7r--|-
E|----------7-|    |--7------|-
        
Verse1:00:12                                  
G|------------------4----||-----------------|-
D|------------4--5-------||-----------------|-
A|---5-7r--7----------5r-||-3-5r--5-3-------|-
E|-7---------------------||-----------7-5r--|-
You do something to me
G|-----------------------||-----------------|-
D|--9--7-----------------||---------9-9-----|-
A|--------10--9--7-------||-5-7r--7-----7r--|-
E|-----------------------||-----------------|-
Something deep inside

G|------------------4----||-----------------|-
D|------------4--5-------||-----------------|-
A|---5-7r--7----------5r-||-3-5r--5-3-------|-
E|-7---------------------||-----------7-5r--|-
I'm hanging on the wire
G|-----------------------||-----------------|-
D|--9--7-----------------||---------9-9-----|-
A|--------10--9--7-------||-5-7r--7-----7r--|-
E|-----------------------||-----------------|-
For love I'll never find

G|------------------4----||-----------------|-
D|------------4--5-------||-----------------|-
A|---5-7r--7----------5r-||-3-5r--5-3-------|-
E|-7---------------------||-----------7-5r--|-
You do something wonderful
G|-----------------------||-----------------|-
D|--9--7-----------------||---------9-9-----|-
A|--------10--9--7-------||-5-7r--7-----7r--|-
E|-----------------------||-----------------|-
Then chase it all away

G|-----------------------||-----------------|-
D|------------4--5--7----||-----------------|-
A|---5-7r--7----------5r-||-3-5r--5-3-------|-
E|-7---------------------||-----------7-5r--|-
Mixing my emotions
G|-----------------------||-----------------||----------|-
D|--9--7-----------------||---------9-9-----||----------|-
A|--------10--9--7-------||---7r--7-----7r--||-5-7--5-7-|-
E|-----------------------||-7---------------||----------|-
That throws me back again
                                                >> Chorus
Chorus1:01:04                                 
G|-----------------------||-----------------------||----------|-
D|-----------------------||-----------------------||----------|-
A|-3r-33--33--33------5r-||-3-33--33----5/7----7--||-7-6-5-3r-|-
E|------------------5----||----------5-------7----||----------|-
Hanging on the wire, yeah
I'm waiting for the change
G|----------------------------------------||-
D|----------------------------------------||-
A|-3r--3-----------------------5-/-7r---7-||-
E|---------5--3-----0--5r-----------------||-
I'm dancing through the fire
Just to catch a flame an' feel real again


Solo1:01:27      Play x2                       
G|------------------4----||-----------------|-
D|------------4--5-------||-----------------|-
A|-----7r--7----------5r-||-3-5r--5-3-------|-
E|--7--------------------||-----------7-5r--|-

G|-----------------------||-----------------||----------|-
D|--9--7-----------------||---------9-9-----||----------|-
A|--------10--9--7-------||---7r--7-----7r--||-5-7--5-7-|-
E|-----------------------||-7---------------||----------|-

Chorus1:01:53                                 
G|-----------------------||-----------------------||----------|-
D|-----------------------||-----------------------||----------|-
A|-3r-33--33--33------5r-||-3-33--33----5/7----7--||-7-6-5-3r-|-
E|------------------5----||----------5-------7----||----------|-
Hanging on the wire, yeah
I'm waiting for the change
G|----------------------------------------||-
D|----------------------------------------||-
A|-3r--3-----------------------5-/-7r---7-||-
E|---------5--3-----0--5r-----------------||-
I'm dancing through the fire
Just to catch a flame an' feel real again

Verse2:02:16
G|------------------4----||-----------------|-
D|------------4--5-------||-----------------|-
A|-----7r--7----------5r-||-3-5r--5-3-------|-
E|--7--------------------||-----------7-5r--|-
You do something to me
G|-----------------------||-----------------|-
D|--9--7-----------------||---------9-9-----|-
A|--------10--9--7-------||-5-7r--7-----7r--|-
E|-----------------------||-----------------|-
Somewhere deep inside


>>>
G|------------------4----||-----------------|-
D|------------4--5-------||-----------------|-
A|-----7r--7----------5r-||-3-5r--5-3-------|-
E|--7--------------------||-----------7-5r--|-
Hoping to get close to
G|-----------------------||-----------------||----------|-
D|--9--7-----------------||---------9-9-----||----------|-
A|--------10--9--7-------||---7r--7-----7r--||-5-7--5-7-|-
E|-----------------------||-7---------------||----------|-
A peace I cannot find

Chorus2:02:42                                 
G|-----------------------||-----------------------||----------|-
D|-----------------------||-----------------------||----------|-
A|-3r-33--33--33------5r-||-3-33--33----5/7----7--||-7-6-5-3r-|-
E|------------------5----||----------5-------7----||----------|-
Dancing through the fire, yeah
Just to catch a flame
G|----------------------------------------||-
D|----------------------------------------||-
A|-3r--3-----------------------5-/-7r---7-||-
E|---------5--3-----0--5r-----------------||-
Just to get close to
Just close enough to tell you that

Outro:03:12
G|------------------4----||-----------------|-
D|------------4--5-------||-----------------|-
A|-----7r--7----------5r-||-3-5r--5-3-------|-
E|--7--------------------||-----------7-5r--|-
You do something to me
G|-----------------------||-----------------|-
D|--9--7-----------------||---------9-9-----|-
A|--------10--9--7-------||-5-7r--7-----7r--|-
E|-----------------------||-----------------|-
Something deep inside

G|---------------|------------------||-
D|--------9--9r--|-------9--9r------||-
A|----7----------|----7----------7r-||-
E|-7r------------|-7r---------------||-

|9r-----12-11-9--------------|---------------|-
|----------------9--7--------|---------------|-
|----------------------10-9--|7--------------|-
|----------------------------|------7--\--3--|-


|----------------------------||
|----------------------------||
|----------------------------||
|0rrr------------------------||

End: 03:35

            
            
Suggest correction
Creating personal tab
Creating personal tab
You can edit any tab online and save it as your Personal.

You can edit, replace or remove any tab part or add personal notes – all changes will be seen only by you.

Personal tabs can be accessed anytime from any device, even offline.
Learn more »
Give kudos to tab author, rate the tab!
1 2 3 4 5
comments
print report bad tab
1 comment total.
0 reply
sheila scotty 16 Feb 06, 2016 05:44 AM

Excellent tab... Thanks.

guest
You may want to rate the tab now too:
select rating
Wanna post a correction for this tab? Suggest correction