Oops, an error
Loading. Please wait.

You Do Something To Me Acoustic chords

version 3
version 3

Whole song

Interactive

33,197 views 81 this week
2 commentsread comments
1 2 3 4 5
x 40
add to favorites
×
Save as Personal and add changes to this tab that will be seen only by you. Learn more ›
×
You can save this tab as Personal to edit and correct it or add notes. All changes will be seen only by you. Learn more »
launch autoscroll
font size
0
reset
transpose
0
reset
simplify chords
display chords
guitar tuner
backing track
0:00
0:00
edit
Autoscroll
slow
fast
+/-
esc
set tempo
stop
Author
Difficulty
Strumming
There is no strumming pattern for this song yet. and get +5 IQ
PAUL WELLER YOU DO SOMETHING TO ME


chords: Em   022000
        D      0232
        AM7  X02010
        BM   X24432
        G/C7 3X2310
        D/C  XX0010
        C7   X32310
        G    320003
        A7   X02020
        D7   XX0212

[Intro]
e|------0-----------------------------------------------------------| 4x
B|------0-------------0---------------------------------------------|
G|------0---------------0-------------------------------------------|
D|------2-------2s4------4------------------------------------------|
A|------2-----------------------------------------------------------|
E|----0---------------------0---------------------------------------|

this a just before the c7 an couple other times just listen to the song


e|--------------------------------0-------------------------------------------------|
B|--------------------------------1-------------------------------------------------|
G|--------------------------------3-------------------------------------------------|
D|-----9-------7-----5------4-----2-------------------------------------------------|
A|-----0-------0-----0------0-----3-------------------------------------------------|
E|--------------------------------x-------------------------------------------------|


[Verse]
Em                      D     Am7      Bm          Em
You do something to me –      something deep inside
                        D     Am7         Bm          Em
I’m hanging on the wire – for a love I’ll never find
                        D     Am7         Bm          Em
You do something wonderful – then chase it all away
                  D     Am7              Bm    Em
Mixing my emotions –    that throws me back again


[Chorus]
Em               G/C7          AM7        D/C           EM
Hanging on the wire,       I’m waiting for the change
C7                         G           A7
I’m dancing through the fire just to catch a flame
  C   D/C           D7
And feel real again


[Solo]
Em      D      Am7    Bm7    Em x2


[Chorus]
                 G/C7  Am7            D/C            Em
Hanging on the wire yeh , Well I’m waiting for the change
          C7                    G                   A7
Oh I’m dancing through the fire just to catch a flame
     C    D/C       D7
And feel real again


[Verse]
You do something to me – somewhere deep inside
Hoping to get close to you – a peace I can not find
Dancing through the fire     just to catch a flame
Just to get close to you, just close enough –
To tell you that….

You do something to me – something deep inside


[Outro]
Em x4


************************************

| x  Dead note
| s  Slide

************************************
Suggest correction
Creating personal tab
Creating personal tab
You can edit any tab online and save it as your Personal.

You can edit, replace or remove any tab part or add personal notes – all changes will be seen only by you.

Personal tabs can be accessed anytime from any device, even offline.
Learn more »
comments
print report bad tab
2 comments total.
0 reply
stingamajig 153 Jun 14, 2014 07:06 AM

Excellent first tab mate. Well done

0 reply
andyboygenius 10 Apr 30, 2016 08:57 PM

Great effort mate good song to belt out

guest
You may want to rate the tab now too:
select rating
Wanna post a correction for this tab? Suggest correction