Oops, an error
Loading. Please wait.

For Goodness Sake Bass Tab

13 views 1 this week
no commentswrite comment
1 2 3 4 5
3 more votes to show rating
add to favorites
launch autoscroll
font size
0
reset
guitar tuner
Autoscroll
slow
fast
+/-
esc
set tempo
stop
Help us to improve Ultimate-Guitar.com Take our survey!
×
Author
Difficulty
novice
Tabbed by: 6METAL6BASSIST6
E-mail: petergriffinav@gmail.com

Tuning: EADG

G|------------------------------------------------10--------------|
D|8-------------------------------8-------------------------------| x2
A|------------8-------------------------------8-------------------|
E|----------------6-----------------------------------------------|

0:11

G|----------------------------------------------------------------|
D|8---------------------------------------------------------------|
A|------------8-------------------3-------------------------------|
E|----------------6---------------------------3---1---------------|

G|----------------------------------------------------------------|
D|------------5---3---------------8-----------8-------------------|
A|3-----------------------------------------------8-------6-------|
E|----------------------------------------------------------------|

G|----------------------------------------------------------------|
D|--------------------------------------------5-------------------|
A|5-----------5-------------------3---------------3---------------|
E|----------------3-----------------------------------------------|

G|----------------------------------------------------------------|
D|3---------------3---------------8-------------------------------|
A|------------3-----------------------------------8---------------|
E|--------------------------------------------6-------------------|

0:33

G|----------------------------------------------------------------|
D|8---------------------------------------------------------------|
A|------------8-------------------3-------------------------------|
E|----------------6---------------------------3---1---------------|

G|----------------------------------------------------------------|
D|----------------3-------4-------5-------------------------------|
A|3-----------3-------------------------------5-------------------|
E|------------------------------------------------3---------------|

G|----------------------------------------------------------------|
D|5-----------5---3---------------------------5-------------------|
A|------------------------5-------3---------------3---------------|
E|----------------------------------------------------------------|

G|----------------------------------------------------------------|
D|3---------------3---------------8-------------------------------|
A|------------3-------------------------------8-------------------|
E|------------------------------------------------6-----------5---|

0:53

G|----------------------------------------------------------------|
D|------------------------------------------------3-------3-------|
A|--------------------------------3-------3-----------------------|
E|3-------3-------1-------1---------------------------------------|

G|----------------------------------------------------------------|
D|----------------------------------------------------------------|
A|----------------3-------3---------------------------------------|
E|3-------3-----------------------1-------1-------1-------1-------|

G|----------------------------------------------------------------|
D|----------------------------------------------------------------|
A|----------------4-------------------------------------------1---|
E|4-------4-----------------------2-------2-------2---------------|

G|--------------------------------------------------------10------|
D|----------------------------------------------------10----------|
A|3---------------3-------------/-8-------8-------------------10--|
E|----------------------------------------------------------------|

1:14

G|----------------------------------------------------------------|
D|8---------------------------------------------------------------|
A|------------8-------------------3-------------------------------|
E|----------------6---------------------------3---1---------------|

G|----------------------------------------------------------------|
D|------------5---3---------------8-----------8-------------------|
A|3-----------------------------------------------8-------6-------|
E|----------------------------------------------------------------|

G|------------------------------------------------5---------------|
D|----------------5---------------------------5-------------------|
A|5-----------5-------------------3-------------------------------|
E|----------------------------------------------------------------|

G|--------------------------------|
D|3---------------3---------------|
A|------------3-------------------|
E|--------------------------------|

1:32

G|----------------------------------------------------------------|
D|8---------------------------------------------------------------|
A|------------8-------------------3-------------------------------|
E|----------------6---------------------------3---1---------------|

G|----------------------------------------------------------------|
D|----------------3-------4-------5-------------------------------|
A|3-----------3-------------------------------5-------------------|
E|------------------------------------------------3---------------|

G|----------------------------------------------------------------|
D|5-----------5---3-----------------------------------------------|
A|------------------------5-------3---------------3---------------|
E|--------------------------------------------3-------------------|

G|----------------------------------------------------------------|
D|3---------------3---------------8-------------------------------|
A|------------3-------------------------------8-------------------|
E|------------------------------------------------6-------5---5---|

1:54

G|----------------------------------------------------------------|
D|----------------------------------------------------------------|
A|--------------------------------3-------3-----------------------|
E|3-------3-------1-------1-----------------------1-------1-------|

G|----------------------------------------------------------------|
D|----------------------------------------------------------------|
A|----------------3-------3---------------------------------------|
E|3-------3-----------------------1-------1-------1---------------|

G|----------------------------------------------------------------|
D|----------------------------------------------------------------|
A|----------------4-------------------------------------------1---|
E|4-------4-----------------------2-------2-------2-------2-------|

G|--------------------------------------------------------10------|
D|----------------------------------------------------10----------|
A|3---------------3-------------/-8-------8-------------------10--|
E|----------------------------------------------------------------|

2:15

G|----------------------------------------------------------------|
D|8---------------------------------------------------------------|
A|------------8-------------------3-------------------------------|
E|----------------6---------------------------3---1---------------|

G|----------------------------------------------------------------|
D|------------5---3---------------8-----------8-------------------|
A|3-----------------------------------------------8-------6-------|
E|----------------------------------------------------------------|

G|----------------------------------------------------------------|
D|--------------------------------------------5-------------------|
A|5-----------5-------------------3---------------3---------------|
E|----------------3-----------------------------------------------|

G|----------------------------------------------------------------|
D|3---------------3-------4-------5-----------5-------------------|
A|------------3-----------------------------------3---------------|
E|----------------------------------------------------------------|

G|--------------------------------|
D|3---------------3---------------|
A|------------3-------------------|
E|--------------------------------|

2:38 until fadeout.

G|----------------------------------------------------------------|
D|8-----------------------------------------------3-----/-10------|
A|------------8-------------------3-----------3-------------------|
E|----------------6-----------------------------------------------|
Suggest correction
Give kudos to tab author, rate the tab!
1 2 3 4 5
comments
print report bad tab
guest
You may want to rate the tab now too:
select rating
Wanna post a correction for this tab? Suggest correction