Oops, an error
Loading. Please wait.

Love Conquers All Bass Tab

16 views 3 this week
no commentswrite comment
1 2 3 4 5
3 more votes to show rating
add to favorites
launch autoscroll
font size
0
reset
guitar tuner
Autoscroll
slow
fast
+/-
esc
set tempo
stop
Help us to improve Ultimate-Guitar.com Take our survey!
×
Author
Difficulty
novice
Tabbed by: 6METAL6BASSIST6
E-mail: petergriffinav@gmail.com

Tuning: EADG

G|--------5---------------5---------------5---------------5-------|
D|----------------------------------------------------------------| x2
A|----------------------------------------------------------------|
E|----------------------------------------------------------------|

0:12

G|----------------------------------------------------------------|
D|----------------------------------------------------------------|
A|3-----------3---2-----------2-----------------------------------|
E|--------------------------------5-----------5---3-----------3---|

G|----------------------------------------------------------------|
D|3-----------3---2-----------2-----------------------------------|
A|--------------------------------5-----------5-------------------|
E|------------------------------------------------3-----------3---|

G|----------------------------------------------------------------|
D|----------------------------------------------------------------|
A|3-----------3---2-----------2-----------------------------------|
E|--------------------------------5-----------5---3-----------3---|

G|----------------------------------------------------------------|
D|3-----------3---2-----------2-----------------------------------|
A|--------------------------------5-----------5---7---------------|
E|--------------------------------------------------------7---\---|

G|----------------|
D|----------------|
A|----------------|
E|0-------0---/---|

0:36

G|----------------------------------------------7-----7-----------|
D|--------------7-----7-----------------------7-----7---7---------|
A|------------7-----7-----7-------5-----------------------5-------|
E|5---------------------------5-------------------------------7---|

G|----------------------------------------------7-----7-----------|
D|--------------7-----7-----------------------7-----7---7---------|
A|------------7-----7---7-----7---5-----------------------5---\---|
E|5-----------------------5---------------------------------------|

G|--------------5-----5-------------------------------------------|
D|------------5-----5---------------------------7-----7-----------|
A|3-----------------------3-------------------7-----7-------------|
E|--------------------------------5-----------------------5-------|

G|----------------------------------------------------------------|
D|--------------8-----8-------------------9-----------------------|
A|------------8-----8---------------------------------------------|
E|6-----------------------6-------7---------------3-------3-------|

G|----------------|
D|----5-------5---|
A|----------------|
E|3-------3-------|

0:58

G|--------5---------------4---------------------------------------|
D|----------------------------------------7---------------5-------|
A|3---------------2-----------------------------------------------|
E|--------------------------------5---------------3---------------|

G|----------------------------------------------------------------|
D|3-----------3---2-----------2---------------------------5-------|
A|--------------------------------5-----------5---------5---5-----|
E|------------------------------------------------3-----------3---|

G|----------------------------------------------------------------|
D|----------------------------------------------------------/-5---|
A|3-----------3---2-----------2-----------------------------------|
E|--------------------------------5-----------5---3---------------|

G|--------------------------------------------------------9-------|
D|3-----------3---2-----------2-----------------------7-------7---|
A|--------------------------------5-----------5---7---------------|
E|----------------------------------------------------------------|

G|9---------------|
D|--9-------------|
A|----7-----------|
E|--------9---7---|

1:21

G|----------------------------------------------7-----7-----------|
D|--------------7-----------------------------7-----7-----7-------|
A|------------7-----7-----7---6---5---5-----------------------5---|
E|5---5---------------5-------------------------------------------|

G|----------------------------------------------7-----7-----------|
D|--------------7-----7-----------------------7-----7---7---------|
A|------------7-----7-----7-------5-----------------------5---\---|
E|5---------------------------5-----------------------------------|

G|----------------------------------------------------------------|
D|----------------------------------------------------------------|
A|3---------------3-----------3-----------------------------------|
E|--------------------------------5---------------5-----------5---|

G|----------------------------------------------------------------|
D|----8-------8-------8-----------------------9-\-----------------|
A|----------------------------------------------------------------|
E|6-------6-------6-------6-------7-------7-------3-------3-------|

G|----------------|
D|----5-------5---|
A|----------------|
E|3-------3-------|

1:44

G|--------5-------------------------------------------------------|
D|----------------------------------------------------------/-5---|
A|3---------------2-----------2-----------------------------------|
E|--------------------------------5-----------5---3---------------|

G|----------------------------------------------------------------|
D|3-----------3---2-----------2---------------------------5-------|
A|--------------------------------5---------3---------------5-----|
E|--------------------------------------------5---3-----------3---|

G|----------------------------------------------------------------|
D|----------------------------------------------------------/-5---|
A|3-----------3---2-----------2-----------------------------------|
E|--------------------------------5-----------5---3---------------|

G|----------------------------------------------------------------|
D|3-----------3---2-----------2---3---------2-----------------2---|
A|--------------------------------------------5---3---------5-----|
E|----------------------------------------------------------------|

G|----------------------------------------------------------------|
D|3---------2-------------------------5---5-----------5-----------|
A|------------5---3---------2-------------------------------------|
E|----------------------------5---3---------------3-------3-------|

2:11

G|--------5---------------5---------------5-----------------------|
D|----------------------------------------------------------------|
A|3---------------3---------------3---------------3-------3-------|
E|----------------------------------------------------------5-3---|

G|--------5---------------5---------------5-----------------------|
D|--------------------------------------------------------5-------| x2
A|3---------------3---------------3---------------3---------------|
E|----------------------------------------------------------------|

G|--------5---------------5---------------5-----------------------|
D|----------------------------------------------------------------|
A|3---------------3---------------3---------------3-------3-------|
E|----------------------------------------------------------5-3---|

G|--------5-------------------------------5-----------------------|
D|----------------------------------------------------------------|
A|3---------------3-------3-------3---------------3-3---3-3-------|
E|--------------------------5-3-----------------------------5-3---|

G|--------5-------------------------------5-------------------------------5---|
D|----------------------------------------------------------------------------| fades out here.
A|3---------------3-3---3-3-------3---------------3-3---3-3-------3-----------|
E|--------------------------5-3-----------------------------5-3---------------|
Suggest correction
Give kudos to tab author, rate the tab!
1 2 3 4 5
comments
print report bad tab
guest
You may want to rate the tab now too:
select rating
Wanna post a correction for this tab? Suggest correction