Oops, an error
Loading. Please wait.

My Fair Share bass

22 views 1 this week
no commentswrite comment
1 2 3 4 5
3 more votes to show rating
add to favorites
×
Save as Personal and add changes to this tab that will be seen only by you. Learn more ›
×
You can save this tab as Personal to edit and correct it or add notes. All changes will be seen only by you. Learn more »
launch autoscroll
font size
0
reset
guitar tuner
edit
Autoscroll
slow
fast
+/-
esc
set tempo
stop
Author
Difficulty
Tabbed by: 6METAL6BASSIST6
E-mail: petergriffinav@gmail.com

Tuning: EADG

G|----------------------------12----------------------------------|
D|------------12-----/13----------10------------------------------|
A|--------10------------------------------------------------------|
E|----8-----------------------------------------------------------|

G|----------------------------------------------------------------|
D|------------13-----/15--\-------9-----------------------12------|
A|--------11------------------11----------------------------------|
E|----9-----------------------------------------------------------|

G|----------------------------------------------------------------|
D|10----------9---8---------------7-------------------------------|
A|----------------------------------------------------------------|
E|----------------------------------------------------------------|

G|----------------------------------------------------------------|
D|6-------------------------------5-------------------------------|
A|----------------------------------------------------------------|
E|----------------------------------------------------------------|

G|----------------------------------------------------------------|
D|--------------------------------10------------------------------|
A|3---------------------------------------------------------------|
E|----------------------------------------------------------------|

0:25

G|----------------------------12----------------------------------|
D|------------12-----/13----------10------------------------------|
A|--------10------------------------------------------------------|
E|----8-----------------------------------------------------------|

G|----------------------------------------------------------------|
D|------------13-----/15--\-------9---------------------------12--|
A|--------11------------------11----------------------------------|
E|----9-----------------------------------------------------------|

G|--------------------------------------------------------10--\---|
D|10----------9---8---------------7-------------------------------|
A|----------------------------------------------------------------|
E|----------------------------------------------------------------|

G|----------------------------------------------------------------|
D|6-----------------------3-------5-------------------------------|
A|----------------------------5-----------------------------------|
E|----------------------------------------------------------------|

G|----------------------------------------------------------------|
D|----------------------------5-/-10------------------------------|
A|3---------------------------------------------------------------|
E|----------------------------------------------------------------|

0:50

G|----------------------------12----------------------------------|
D|------------12-----/13----------10------------------------------|
A|--------10----------------------------------------------10------|
E|----8-----------------------------------------------------------|

G|----------------------------------------------------------------|
D|------------13-----/15--\-------9-----------------------12------|
A|--------11------------------11----------------------------------|
E|----9-----------------------------------------------------------|

G|----------------------------------------------------------------|
D|10----------9---8---------------7-------------------------------|
A|--------------------------------------------------------8-------|
E|----------------------------------------------------------------|

G|----------------------------------------------------------------|
D|6-------------------------------5-----------------------5-------|
A|----------------------------5-----------------------------------|
E|----------------------------------------------------------------|

G|----------------------------9---9-------------------------------|
D|------------5-----------/---------------10----------------------|
A|3-------------------------------------------10----------7-------|
E|------------------------------------------------8---------------|

1:14

G|----------------------------------------------------------------|
D|----------------------------------------------------------------|
A|8-----------------------7-------5-----------3---2---------------|
E|----------------------------------------------------------------|

G|----------------------------------------------------------------|
D|------------------------7/9-----7-----------5-------------------|
A|3-----------------------------------------------7---------------|
E|--------------------------------------------------------5-------|

G|----------------------------------------------------------------|
D|------------7-/-12----------------------------------------------|
A|5-------------------------------10------------------------------|
E|----------------------------------------------------------------|

1:28

G|----------------------------12----------------------------------|
D|------------12-----/13----------10------------------------------|
A|--------10------------------------------------------------------|
E|----8-----------------------------------------------------------|

G|----------------------------------------------------------------|
D|------------13-----/15--\-------9-----------------------9---/---|
A|--------11------------------11----------------------------------|
E|----9-----------------------------------------------------------|

G|12------------------------------|
D|--------------------------------|
A|--------------------------------|
E|--------------------------------|

1:40

G|----------------------------------------------------------------|
D|--------------------------------------------------------5-------|
A|3---------------------------3---3---------------------------6---|
E|----------------------------------------------------------------|

G|----------------------------------------------------------------|
D|--------------------------------------------------------5-------|
A|4---------------------------3---2---------------------------5---|
E|----------------------------------------------------------------|

G|----------------------------------------------------------------|
D|--------------------------------------------------------3-------|
A|3---------------------------------------------------------------|
E|----------------6---------------5-------------------------------|

G|----------------------------------------------------------------|
D|--------------------------------------------------------5-------|
A|----------------------------------------------------------------|
E|4---------------------------4---3-------------------------------|

G|----------------------------------------------------------------|
D|----------------------------5-/-10------------------------------|
A|3---------------------------------------------------------------|
E|----------------------------------------------------------------|

2:05

G|----------------------------12----------------------------------|
D|------------12-----/13----------10------------------------------|
A|--------10----------------------------------------------10------|
E|----8-----------------------------------------------------------|

G|----------------------------------------------------------------|
D|------------13-----/15--\-------9-----------------------12------|
A|--------11------------------11----------------------------------|
E|----9-----------------------------------------------------------|

G|--------------------------------------------------------10--\---|
D|10----------9---8---------------7-------------------------------|
A|----------------------------------------------------------------|
E|----------------------------------------------------------------|

G|----------------------------------------------------------------|
D|6-----------------------3-------5-----------------------5-------|
A|----------------------------5-----------------------------------|
E|----------------------------------------------------------------|

G|--------------------------------9-------------------------------|
D|------------5-----------------/---------10----------------------|
A|3-------------------------------------------10----------7-------|
E|------------------------------------------------8---------------|

2:29

G|----------------------------------------------------------------|
D|----------------------------------------------------------------|
A|8-----------------------7-------5-----------3---2---------------|
E|----------------------------------------------------------------|

G|----------------------------------------------------------------|
D|----------------------/-9-------7---------5---------------------|
A|3-------------------------------------------7-----------3---4---|
E|------------------------------------------------5---------------|

G|----------------------------------------------------------------|
D|------------7-/-12----------\-----------------------------------|
A|5-------------------------------10------------------------------|
E|----------------------------------------------------------------|

2:43

G|----------------------------12----------------------------------|
D|------------12-----/13----------10------------------------------|
A|--------10----------------------------------------------10------|
E|----8-----------------------------------------------------------|

G|----------------------------------------------------------------|
D|------------13-----/15--\-------9-----------------------9---/---|
A|--------11------------------11----------------------------------|
E|----9-----------------------------------------------------------|

G|12------------------------------|
D|--------------------------------|
A|--------------------------------|
E|--------------------------------|

2:55

G|----------------------------12----------------------------------|
D|------------12-----/13----------10------------------------------|
A|--------10------------------------------------------------------|
E|----8-----------------------------------------------------------|

G|----------------------------------------------------------------|
D|------------13-----/15--\-------9-------------------------------|
A|--------11------------------11----------------------------------|
E|----9-----------------------------------------------------------|

G|--------------------------------|
D|--------------------------------|
A|--------------------------------|
E|----------------8---------------|

            
            
Suggest correction
Creating personal tab
Creating personal tab
You can edit any tab online and save it as your Personal.

You can edit, replace or remove any tab part or add personal notes – all changes will be seen only by you.

Personal tabs can be accessed anytime from any device, even offline.
Learn more »
Give kudos to tab author, rate the tab!
1 2 3 4 5
comments
print report bad tab
guest
You may want to rate the tab now too:
select rating
Wanna post a correction for this tab? Suggest correction