Oops, an error
Loading. Please wait.

Save Me A Dream Bass Tab

28 views 1 this week
no commentswrite comment
1 2 3 4 5
3 more votes to show rating
add to favorites
launch autoscroll
font size
0
reset
guitar tuner
Autoscroll
slow
fast
+/-
esc
set tempo
stop
Help us to improve Ultimate-Guitar.com Take our survey!
×
Author
Difficulty
novice
Tabbed by: 6METAL6BASSIST6
E-mail: petergriffinav@gmail.com

Tuning: EADG

G|------------------------------------------------------------8---|
D|13--------------------------8-----------------------------------|
A|--------------------------------6-------------------------------|
E|----------------------------------------------------------------|

G|----------------------------------------8-----------13----\-12--|
D|6-------------------------------5-h-6-------8-/-10--------------|
A|----------------------------6-----------------------------------|
E|----------------------------------------------------------------|

G|------------------------------------------------------------8---|
D|13----------------------\---8-----------------------------------|
A|--------------------------------6-------------------------------|
E|----------------------------------------------------------------|

G|----------------------------------------8-----------13----\-12--|
D|6-------------------------------5-h-6-------8-/-10--------------|
A|----------------------------6-----------------------------------|
E|----------------------------------------------------------------|

0:19

G|------------------------------------------------------------8---|
D|13----------------------\---8-----------------------------------|
A|--------------------------------6-------------------------------|
E|----------------------------------------------------------------|

G|----------------------------------------------------------------|
D|6---------------------------6---6-------------------------------|
A|----------------------------------------------------------------|
E|----------------------------------------------------------------|

G|----------------------------------------------------------------|
D|5---------------------------------------------------------------|
A|----------------------------5-----------------------------------|
E|--------------------------------3-------------------------------|

G|----------------------------------------------------------------|
D|----------------------------10--8-----------------------8---/---|
A|3-------------------6---10--------------------------------------|
E|----------------------------------------------------------------|

0:35

G|------------------------------------------------------------8---|
D|13--------------------------8-----------------------------------|
A|--------------------------------6-------------------------------|
E|----------------------------------------------------------------|

G|----------------------------------------------------------------|
D|6-------------------------------6-------------------------------|
A|----------------------------6-----------------------------------|
E|----------------------------------------------------------------|

G|----------------------------------------------------------------|
D|5---------------------------------------------------------------|
A|----------------------------5---------------------------2-------|
E|--------------------------------3-------------------------------|

G|----------------------------------------------------------------|
D|--------------------------------------------------------8-------|
A|3-----------------------3---2---1-------------------8-----------|
E|----------------------------------------------------------------|

0:52

G|----------------------------------------------------------------|
D|----------------------------------------------------------------|
A|6---------------------------6---6-------------------------------|
E|------------------------------------------------------------6---|

G|----------------------------------------------------------------|
D|--------------------------------6-------------------------------|
A|----------------------------6---------------------------3---6---|
E|4---------------------------------------------------6-----------|

G|----------------------------------------------------------------|
D|----------------------------8-----------------------------------|
A|6-------------------------------6---------------------------6---|
E|----------------------------------------------------------------|

G|----------------------------------------------------------------|
D|--------------------------------6-------------------------------|
A|----------------------------6---------------------------3-------|
E|4---------------------------------------------------4-------4---|

1:09

G|----------------------------------------------------------------|
D|--------------------------------------------------------5---4---|
A|----------------2---------------3-------------------------------|
E|3---------------------------------------------------------------|

G|----------------------------------------------------------------|
D|3-------------------------------3-------------------3-----------|
A|----------------------------3---------------------------0-------|
E|----------------------------------------------------------------|

G|----------------------------------------------------------------|
D|--------------------------------------------8---8---------------|
A|1-----------1---1-----------------------------------------------|
E|----------------------------------------------------------------|

1:22

G|------------------------------------------------------------8---|
D|13--------------------------8-----------------------------------|
A|--------------------------------6-------------------------------|
E|----------------------------------------------------------------|

G|----------------------------------------8-----------13----\-12--|
D|6-------------------------------5-h-6-------8-/-10--------------|
A|----------------------------6-----------------------------------|
E|----------------------------------------------------------------|

G|------------------------------------------------------------8---|
D|13----------------------\---8-----------------------------------|
A|--------------------------------6-------------------------------|
E|----------------------------------------------------------------|

G|----------------------------------------8-----------13----\-12--|
D|6-------------------------------5-h-6-------8-/-10--------------|
A|----------------------------6-----------------------------------|
E|----------------------------------------------------------------|

1:39

G|----------------------------------------------------------------|
D|13----------------------10--\---------------------------5-------|
A|--------------------------------6-------------------6-----------|
E|----------------------------------------------------------------|

G|----------------------------------------------------------------|
D|6-------------------------------6-----------------------6-------|
A|----------------------------6-----------------------------------|
E|----------------------------------------------------------------|

G|----------------------------------------------------------------|
D|5---------------------------------------------------------------|
A|----------------------------5---------------------------2-------|
E|--------------------------------3-------------------------------|

G|----------------------------------------------------------------|
D|--------------------------------------------------------8-----/-|
A|3-----------------------3---2---1-----------10--8---------------|
E|----------------------------------------------------------------|

1:56

G|----------------------------------------------------------------|
D|13----------------------10-\8---------------------------5-------|
A|--------------------------------6-------------------6-----------|
E|----------------------------------------------------------------|

G|----------------------------------------------------------------|
D|6-----------------------------------------------------------6---|
A|------------------------8---\-----------------------3---6-------|
E|--------------------------------4-------------------------------|

G|----------------------------------------------------------------|
D|5---------------------------------------------------------------|
A|----------------------------5---------------------------2-------|
E|--------------------------------3-------------------3-----------|

G|----------------------------------------------------------------|
D|--------------------------------------------------------8-------|
A|3-----------------------3---2---1-------------------8-----------|
E|----------------------------------------------------------------|

2:14

G|----------------------------------------------------------------|
D|----------------------------------------------------------------|
A|6---------------------------6---6-------------------------------|
E|------------------------------------------------------------6---|

G|----------------------------------------------------------------|
D|--------------------------------6-------------------------------|
A|----------------------------6---------------------------3-------|
E|4---------------------------------------------------6-----------|

G|----------------------------------------------------------------|
D|----------------------------------------------------------------|
A|6---------------------------6---6---------------------------6---|
E|----------------------------------------------------------------|

G|----------------------------------------------------------------|
D|--------------------------------6-------------------------------|
A|----------------------------6---------------------------3-------|
E|4---------------------------------------------------4-------4---|

2:30

G|----------------------------------------------------------------|
D|--------------------------------------------------------5---4---|
A|----------------2---------------3-------------------------------|
E|3---------------------------------------------------------------|

G|----------------------------------------------------------------|
D|3-------------------------------3-------------------3-----------|
A|----------------------------3---------------------------0-------|
E|----------------------------------------------------------------|

G|----------------------------------------------------------------|
D|--------------------------------------------8---8---------------|
A|1-----------1---1-----------------------------------------------|
E|----------------------------------------------------------------|

2:43

G|------------------------------------------------------------15--|
D|13------------------------------12------------------------------|
A|----------------------------------------------------------------|
E|----------------------------------------------------------------|

G|------------------------------------------------------------13--|
D|11------------------------------10------------------------------|
A|----------------------------------------------------------------|
E|----------------------------------------------------------------|

G|----------------------------------------------------------------|
D|9-------------------6---------------------------------------8---|
A|------------------------6-------------------------------8-------|
E|----------------------------7---6-------------------6-----------|

G|--------------------------------|
D|--------------------------------|
A|--------------------------------|
E|--------------------------------|

2:58

G|----------------------------------------------------------------|
D|----------------------------8-----------------------------------|
A|6-------------------------------6-------------------------------|
E|----------------------------------------------------------------|

G|----------------------------------------------------------------|
D|6-------------------------------6-----------\-------------------|
A|----------------------------------------------------1-----------|
E|----------------------------------------------------------------|

G|--------------------------------|
D|--------------------------------|
A|------------------6-------------|
E|--------------------------------|
Suggest correction
Give kudos to tab author, rate the tab!
1 2 3 4 5
comments
print report bad tab
guest
You may want to rate the tab now too:
select rating
Wanna post a correction for this tab? Suggest correction