Oops, an error
Loading. Please wait.

To Put Up With You bass

28 views 1 this week
no commentswrite comment
1 2 3 4 5
3 more votes to show rating
add to favorites
×
Save as Personal and add changes to this tab that will be seen only by you. Learn more ›
×
You can save this tab as Personal to edit and correct it or add notes. All changes will be seen only by you. Learn more »
launch autoscroll
font size
0
reset
guitar tuner
edit
Autoscroll
slow
fast
+/-
esc
set tempo
stop
Author
Difficulty
Tabbed by: 6METAL6BASSIST6
E-mail: petergriffinav@gmail.com

Tuning: EADG

G|----------------------------------------------------------------|
D|----------------------------------------------------------------|
A|9-----------9---9---9-----------7-----------7---7---7-------7---|
E|----------------------------------------------------------------|

G|----------------------------------------------------------------|
D|----------------------------------------------------------------|
A|5-----------5---5---5-------5---7-----------7---7---7-------4-/-|
E|----------------------------------------------------------------|

0:11

G|------------11------------------------------9-------------------|
D|--------------------11------------------------------9-----------|
A|9---------------------------9---7---------------------------7---|
E|----------------------------------------------------------------|

G|------------7-------6---------------------------9---------------|
D|------------------------7---------------------9---9-----9-------|
A|5---------------------------5---7-------------------7-------7---|
E|----------------------------------------------------------------|

G|------------11----------------------9---------------9-------9---|
D|--------------------11----------------------------9-------------|
A|9---------------------------9---7-----------7-----------7-------|
E|----------------------------------------------------------------|

G|7-----------7-------6-------------------------------------------|
D|----7-------------7-----7---------------------------------------|
A|--------5-----------------------4---4---4---4---4---4---2---2---|
E|----------------------------------------------------------------|

0:30

G|----------------------------------------------------------------|
D|----------------1---1-------4---6---6-------6-------------------|
A|1---1-------1-4---------------------------------4---4-------2---|
E|----------------------------------------------------------------|

G|----------------------------------------------------------------|
D|----------------1---1-------4-5-6---6-------6-------------------|
A|1---1-------1-4---------------------------------4---4-------2---|
E|----------------------------------------------------------------|

G|----------------------------------------------------------------|
D|----------------1---1-------4---6---6---------------------------|
A|1---1-------1-4-----------------------------4-------------------|
E|----------------------------------------------------------------|

0:45

G|--------------------------------------------9-------------------|
D|----------------------------------------------------------------|
A|9-----------9---9-----------4-/-7---7-------------------7-------|
E|----------------------------------------------------------------|

G|------------7-----6---------------------------------------------|
D|------------------------7---------------------------------------|
A|5---5-----------------------5---7-----------7---7---7-----------|
E|----------------------------------------------------------------|

0:55

G|------------11------11----------------------9-------9-----------|
D|------------------11------------------------------9-----9-------|
A|----9-------------------9-------7---7-----------------------7---|
E|9---------------------------------------------------------------|

G|--------------------7---6---------------------------------------|
D|------------7-----7---------7-----------------------------------|
A|5---5---------------------------7---7-------7-------5-7-7-------|
E|----------------------------------------------------------------|

G|----------------------------------------------------9-----------|
D|--------------------------------------------------9---9-----9-\-|
A|9---9-------9-------9-------9---7---7-------7-----------7-------|
E|------------------9-----9---------------------------------------|

G|--------------------7---6---------------------------------------|
D|------------7-----7---------------------------------------------|
A|5---5---------------------------4---4---4---4-------4-------2---|
E|----------------------------------------------------------------|

1:15

G|----------------------------------------------------------------|
D|----------------1---1-------4-5-6---6-------6-------------------|
A|1---1-------1---------------------------------6-4---4-------2---|
E|----------------------------------------------------------------|

G|----------------------------------------------------------------|
D|----------------1---1-------4---6---6-------6-------------------|
A|1---1-------1-----------------------------------4---4-------2---|
E|----------------------------------------------------------------|

G|----------------------------------------------------------------|
D|----------------1---1-------4---6---6---------------------------|
A|1---1-------1-------------------------------4-------------------|
E|----------------------------------------------------------------|

1:30

G|------------------------------------9---------------------------|
D|--------------------------------------------9-------------------|
A|9---------------------------2-/-7-------------------------------|
E|----------------------------------------------------------------|

G|--------------------7---6---------------------------------------|
D|----------------------------------------------------------------|
A|5-------------------------------4---4---4---4-----4-----4-------|
E|----------------------------------------------------------------|

1:39

G|----------------------------------------------------------------|
D|--------------------------------4-------4-------4-------4-------|
A|2-------2-------2-------2---------------------4-----4-------4---|
E|----------------------------------------------------------------|

G|----------------------------------------------------------------|
D|--------------------------------4-------4-------4-------4-------|
A|2-------2-------2-------2-----4---------------4-----4-------4---|
E|----------------------------------------------------------------|

G|----------------------------------------------------------------|
D|----------------------------------------------------------------|
A|4-------4-------4-------4-------4---4---4---4---4---4---2---2---|
E|----------------------------------------------------------------|

1:55

G|----------------------------------------------------------------|
D|----------------1-------1-------1-/-6---6-----------------------| x2
A|1-------1-------------------------------------6-4---4-------2---|
E|----------------------------------------------------------------|

G|----------------------------------------------------------------|
D|----------------1-------1-------1-/-6---------------------------|
A|1-------1-----4-----------------------------4-------------------|
E|----------------------------------------------------------------|

2:10

G|----------------------------------------------------------------|
D|----------------------------------------------------------------|
A|9-------------------------------9\7-----------------------------|
E|----------------------------------------------------------------|

G|--------------------------------7/9-----------------9-----------|
D|--------------------------------------------------9-----9-------|
A|7\5---------------------------------------------------------7---|
E|----------------------------------------------------------------|

2:20

G|------------11------------------------------9-------------------|
D|--------------------11------------------------------9-----------|
A|9---------------------------9---7---------------------------7---|
E|----------------------------------------------------------------|

G|--------------------7---6---------------9-----------------------|
D|------------7-----7---------7-------9-----9---9-----------------|
A|5---------------------------------7---7-----7-----7-7-------7-/-|
E|--------------------------------------------------------7-------|

G|-------------11-------------------------9-----------------------|
D|-------11--11----11-11--------------9-----9---9-----------------|
A|----9-----------------------9-\---7---7-----7-------7-------7---|
E|------------------------9-------------------------7-----7-------|

G|--------------7-----6---------------------9---------------------|
D|--------7---------7-----7-----------6-7-9-----------------------|
A|5---5-------5---------------5---/-7-----------7-7---7-------7-/-|
E|----------------------------------------------------------------|

2:39

G|----------------------------------------9-----------------------|
D|----------------------------------6---9---9---9-----7---6-------|
A|----9---9---9-9---9-9-----9-9---7-----------7-----7---------7---|
E|----------------------------------------------------------------|

G|----7---6-----4-------------------------------9-----------------|
D|--7---------7-----7-7-------4-/-----6---7---9-----9-----9---6---|
A|5-----------------------5---------7-----------------7-----------|
E|----------------------------------------------------------------|

G|--------------------11------------------|
D|------------11--------------11----------| fades out here.
A|9---9-----9-------9-------9---------7---|
E|----------------------------------------|

            
            
Suggest correction
Creating personal tab
Creating personal tab
You can edit any tab online and save it as your Personal.

You can edit, replace or remove any tab part or add personal notes – all changes will be seen only by you.

Personal tabs can be accessed anytime from any device, even offline.
Learn more »
Give kudos to tab author, rate the tab!
1 2 3 4 5
comments
print report bad tab
guest
You may want to rate the tab now too:
select rating
Wanna post a correction for this tab? Suggest correction