Oops, an error
Loading. Please wait.

Infortunio tab

36 views 1 this week
no commentswrite comment
1 2 3 4 5
3 more votes to show rating
add to favorites
×
Save as Personal and add changes to this tab that will be seen only by you. Learn more ›
×
You can save this tab as Personal to edit and correct it or add notes. All changes will be seen only by you. Learn more »
launch autoscroll
font size
0
reset
how to read this tab
guitar tuner
edit
Autoscroll
slow
fast
+/-
esc
set tempo
stop
Ritmo: Albazo
Tono:  Em

El oído a mejorado eso espero...
Más ecuatorianos colaboremos
para que el mundo conozca nuestra hermosa música

     G
E||--------------12----|--12----12----15---------|
B||--13----13----13----|--13----13----13---------|
G||--12----12----------|-------------------------|
D||--------------------|-------------------------|
A||--------------------|-------------------------|
E||--------------------|-------------------------|
        B7                 Em      G
--12----12----10----10-----8----|--------------12-|--12----12----15-|
--13----13----12----12----10----|--13----13----13-|--13----13----13-|
--------------------------------|--12----12-------|-----------------|
--------------------------------|-----------------|-----------------|
--------------------------------|-----------------|-----------------|
--------------------------------|-----------------|-----------------|
              B7          Em    B7
--12----12----10----10-----8-|-------------8----|-------------8----8|
--13----13----12----12----10-|-------10---------|-------10----------|
-----------------------------|--9---------------|--9----------------|
-----------------------------|------------------|-------------------|
-----------------------------|------------------|-------------------|
-----------------------------|------------------|-------------------|
  Em                       B7
--10----8----10----8----|-------------8----|-------------8----8----|
------------------------|-------10---------|-------10--------------|
------------------------|--9---------------|--9--------------------|
------------------------|------------------|-----------------------|
------------------------|------------------|-----------------------|
------------------------|------------------|-----------------------|
                           G
--10----8----10----8----|--15----12----12----|--15----12----12----|
------------------------|--15----12----12----|--13----13----13----|
------------------------|--------------------|--------------------|
------------------------|--------------------|--------------------|
------------------------|--------------------|--------------------|
------------------------|--------------------|--------------------|
  B7           Em
--10----10-----8-----8---------12----|--------12-12----------12----|
--12----12----10----10---------12----|-----12----------12----------|
-------------------------------------|--12-------------------------|
-------------------------------------|-----------------------------|
-------------------------------------|-----------------------------|
-------------------------------------|-----------------------------|

--------------12----12----------12-|--------------12----12-------12|
--------12----------------12-------|--------12----------------12---|
--12-------------------------------|--12---------------------------|
-----------------------------------|-------------------------------|
-----------------------------------|-------------------------------|
-----------------------------------|-------------------------------|

G                B7           Em
Yo no sé... para que habré nacido Ay
G             B7           Em
yo no sé para qué habré nacido

     B7                    Em
para ser un esclavo del destino
     B7                    Em
para ser un esclavo del destino

G        B7                    Em
Ay yayay hoy mi vida es un martirio

   B7                        Em
El dolor ha invadido en toda mi alma
   B7                        Em
el dolor ha invadido en toda mi alma

G           B7             Em
Ay mi Dios, yo te pido que me lleves

   B7                        Em
Sé muy bien con mi muerte no haré falta
   B7                        Em
sé muy bien con mi muerte no haré falta

G         B7             Em
Además... uno menos nada importa.
G         B7             Em
Además... uno menos nada imporrrrrrrrrrrta

Em - B7 - Em

SALUDOS A TODOS DESDE QUITO - ECUADOR
Septiembre 2011 - Luis Cubero
CUALQUIER DUDA undeseounico@

Viva la musica ecuatoriana carajo

Powered by osobebe
Suggest correction
Creating personal tab
Creating personal tab
You can edit any tab online and save it as your Personal.

You can edit, replace or remove any tab part or add personal notes – all changes will be seen only by you.

Personal tabs can be accessed anytime from any device, even offline.
Learn more »
Give kudos to tab author, rate the tab!
1 2 3 4 5
comments
print report bad tab
guest
Wanna post a correction for this tab? Suggest correction