Oops, an error
Loading. Please wait.

Solito tab

73 views 3 this week
no commentswrite comment
1 2 3 4 5
3 more votes to show rating
add to favorites
×
Save as Personal and add changes to this tab that will be seen only by you. Learn more ›
×
You can save this tab as Personal to edit and correct it or add notes. All changes will be seen only by you. Learn more »
launch autoscroll
font size
0
reset
how to read this tab
guitar tuner
edit
Autoscroll
slow
fast
+/-
esc
set tempo
stop
Ritmo: Albazo
Tono:  Em

     G                           B7                 Em
E||--5----3--3--3--3--3--0----|--7----10----7----|--5--7----3-|
B||--5----5--5--5--5--5--0----|--8-----8----8----|--7--7----5-|
G||---------------------------|------------------|------------|
D||---------------------------|------------------|------------|
A||---------------------------|------------------|------------|
E||---------------------------|------------------|------------|
  G                           B7                 Em
--5----3--3--3--3--3--0----|--7----10----7----|--5--7----3----|
--5----5--5--5--5--5--0----|--8-----8----8----|--7--7----5----|
---------------------------|------------------|---------------|
---------------------------|------------------|---------------|
---------------------------|------------------|---------------|
---------------------------|------------------|---------------|

--------12-12----------12----|--------------12----12----------12-|
-----12----------12----------|--------12----------------12-------|
--12-------------------------|--12-------------------------------|
-----------------------------|-----------------------------------|
-----------------------------|-----------------------------------|
-----------------------------|-----------------------------------|

--------------12----12----------12----|--------------12-------12-|
--------12----------------12----------|--------12---------12-----|
--12----------------------------------|--12----------------------|
--------------------------------------|--------------------------|
--------------------------------------|--------------------------|
--------------------------------------|--------------------------|

  Em            G         B7      Em
Cantando por la Ladera te busco solito
                G         B7      Em
Llevando mis ilusiones me marcho solito
   G                    B7         Em
Porque desde tu partida me siento solito
   G                    B7       Em
Llorando mis amarguras solito, solito.

    C
Y cuando en la serranía la aurora se pierda
 G                C                           C C C C
El viento con sus lamentos cobije mis penas, ayyyyyyyy

                     G        B7       Em
Yo iré siguiendo tus huellas, solito, solito,
   G                       B7       Em
Porque desde tu partida me siento solito
                 G      B7      Em
Llorando mis amarguras solito, solito;
                  G      B7        Em
Regresa que ya no puedo vivir tan solito.

Em - B7 - Em

SALUDOS A TODOS DESDE QUITO - ECUADOR
Septiembre 2011 - Luis Cubero
CUALQUIER DUDA undeseounico@

Viva la musica ecuatoriana carajo

Powered by osobebe
Suggest correction
Creating personal tab
Creating personal tab
You can edit any tab online and save it as your Personal.

You can edit, replace or remove any tab part or add personal notes – all changes will be seen only by you.

Personal tabs can be accessed anytime from any device, even offline.
Learn more »
Give kudos to tab author, rate the tab!
1 2 3 4 5
comments
print report bad tab
guest
Wanna post a correction for this tab? Suggest correction