Oops, an error
Loading. Please wait.

Saudade chords

32 views 1 this week
no commentswrite comment
1 2 3 4 5
3 more votes to show rating
add to favorites
×
Save as Personal and add changes to this tab that will be seen only by you. Learn more ›
×
You can save this tab as Personal to edit and correct it or add notes. All changes will be seen only by you. Learn more »
launch autoscroll
font size
0
reset
transpose
0
reset
simplify chords
display chords
guitar tuner
edit
Autoscroll
slow
fast
+/-
esc
set tempo
stop
Strumming
There is no strumming pattern for this song yet. and get +5 IQ
E


E|-------------------------|
B|-------------------------|
G|-------------------------|
D|------------1------------|
A|---2----4------2---------|
E|---------------------0---|


    E
Saudade
        Cº        C#m7
A lua brilha na lagoa
    E
Saudade
              C#7/9- C#7     F#m7 C#7/9- C#7
A luz que sopra         da pessoa
    F#m7
Saudade
        B7C#m7
Igual farol engana o mar, imita o sol
    F#m7
Saudade
       B7               E
Sal e dor que o vento traz

    E
Saudade
          Cº         C#m7
O som do tempo que ressoa
    E
Saudade
           C#7/9- C#7    F#m7/4 C#7/9- C#7
Céu cinzento         à garoa
    F#m7
Saudade
     B7C#m7
Desigual, nunca termina no final
    F#m7
Saudade
        B7          E

Eterno filme em cartaz
E|-------------------------|
B|-------------------------|
G|-------------------------|
D|-------------------------|
A|-------------------------|
E|---0---2---3---4---------|


G#        G#7           C#m7 C#7/4 C#m7
A casa da saudade é o vazio
C#7         C#7/5  C#7      F#m7
O acaso da sauda...de, fogo frio
B7               Cº    D#º        C#m7
Quem foge da saudade preso por um fio
C#m7/B             D#m7/5- G#7/5        C#m7
Se afoga em outras águas,  mas no mesmo rio
C#m7/B             D#m7/5- G#7/5        C#m7
Se afoga em outras águas,  mas no mesmo rio

E|------------------------------|
B|------------------------------|
G|------------------------------|
D|--------------------1---------|
A|---3/4---3---2---4-----2------|
E|--------------------------0---|


( EC#m7  E  C#7/9-  C#7  F#m7/4  C#7/9-
  Fº  F#m7/4  B7C#m7  F#m7  B7  E )

            
            
Suggest correction
Creating personal tab
Creating personal tab
You can edit any tab online and save it as your Personal.

You can edit, replace or remove any tab part or add personal notes – all changes will be seen only by you.

Personal tabs can be accessed anytime from any device, even offline.
Learn more »
Give kudos to tab author, rate the tab!
1 2 3 4 5
comments
print report bad tab
guest
Wanna post a correction for this tab? Suggest correction