Oops, an error
Loading. Please wait.

Virus Bass Tab

36 views 1 this week
no commentswrite comment
1 2 3 4 5
3 more votes to show rating
add to favorites
launch autoscroll
font size
0
reset
guitar tuner
Autoscroll
slow
fast
+/-
esc
set tempo
stop
Help us to improve Ultimate-Guitar.com Take our survey!
×
Author
Difficulty
novice
--------------------------------------------------------------------------
                    VIRUS - Paulo Ricardo & RPM
--------------------------------------------------------------------------
Tabbed by: polaco_mp3z
E-mail: polacomp3z@gmail.com

Tuning: Standard (EADG)


Intro

G|----------------------------------------------------------------|
D|----------------------------------------------------------------|
A|-5--5-5-5--5-5-5--5-7-8--8-8--10--10-10-10--10-10-12--12-12-12--|
E|----------------------------------------------------------------|

G|----------------||------------------|
D|----------------||------------------|
A|---10-10-12\5---||--0-3-0--5-5-5\---|
E|----------------||------------------|

G|-----------------------------------------------------------|
D|-----------------------------------------------------------|
A|-------------------------------3-3-3-x-x-3-3---------------|
E|---5-3-5-x-x-3-3-1-1-1-x-x-1-1---------------3-1-3-x-x-1-3-|

Verso

G|-----------------------------------------------------------|
D|-----------------------------------------------------------| (x2)
A|-------------------------------3-3-3-x-x-3-3---------------|
E|---5-3-5-x-x-3-3-1-1-1-x-x-1-1---------------3-1-3-x-x-1-3-|


Refrão

G|-------------------------------------------------------------------|
D|-------------------------------------------------------------------|
A|-5--5--0-5-5-5-5------------------3--3--0-3-3-3-3------------------|
E|------------------1--1--0-1-1-1-1-----------------3--3--x-3-3-1-3--|

G|----------------------------------------------------------------|
D|------------------------------------------------------------12--|
A|-5--5--0-5-5-5-7-8--8--8-8-10-10--10-12--12--12-12-10-10/12-----|
E|----------------------------------------------------------------|


Repete Verso
Repete Refrão e termina com

G|------------------|
D|------------------|
A|--0-3-0--5-5-5\---|
E|------------------|

Base do solo

G|------------------------------------------------------------|
D|------------------------------------------------------------|
A|------------------------------------------------------------| (x2)
E|---5-3-5-x-x-3-5-6-6-6-x-x-6\1-1-1-1-x-x-1-1--1-1-1-x-x-1-1-|

G|-------------------------------------------------------------------|
D|-------------------------------------------------------------------|
A|-5--5--0-5-5-5-5------------------3--3--0-3-3-3-3------------------|
E|------------------1--1--0-1-1-1-1-----------------3--3--x-3-3-1-3--|

G|-------------------------------------------------------|
D|-------------------------------------------------------|
A|-5--5--0-5-5-5-7-8--8--8-8-10-10--10-12--12--12-12-10--|
E|-------------------------------------------------------|

G|----------------||------------------|
D|----------------||------------------|
A|---10-10-12\5---||--0-3-0--5-5-5\---|
E|----------------||------------------|

G|-----------------------------------------------------------|
D|-----------------------------------------------------------|
A|-------------------------------3-3-3-x-x-3-3---------------|
E|---5-3-5-x-x-3-3-1-1-1-x-x-1-1---------------3-1-3-x-x-1-3-|


Repete Verso
Repete Refrão 2x e termina com

G|------------------------------------|
D|--12--12--12\---12--12--12\---------|
A|------------------------------12----|
E|------------------------------------|


| /  slide up
| \  slide down
| x  Mute note
=====================================================================
Suggest correction
Give kudos to tab author, rate the tab!
1 2 3 4 5
comments
print report bad tab
guest
You may want to rate the tab now too:
select rating
Wanna post a correction for this tab? Suggest correction