Oops, an error
Loading. Please wait.

Uh Oh chords

16 views 1 this week
no commentswrite comment
1 2 3 4 5
2 more votes to show rating
add to favorites
×
Save as Personal and add changes to this tab that will be seen only by you. Learn more ›
×
You can save this tab as Personal to edit and correct it or add notes. All changes will be seen only by you. Learn more »
launch autoscroll
font size
0
reset
transpose
0
reset
display chords
guitar tuner
edit
Autoscroll
slow
fast
+/-
esc
set tempo
stop
Author
Difficulty
About this tab version
Based on the official version. Was this info helpful? Yes No
Strumming Is this strumming pattern correct? Yes No
all parts 75 bpm
1
&
2
&
3
&
4
&
Listen
Tuning: Standard

[Intro]
    G#m                     F#
e|--------11----11----------------9-----9-----------|
B|-----12----12----12----------11----11----11-------|
G|--13----------------13\11-11----------------11\9--|
D|--------------------------------------------------|
A|--------------------------------------------------|
E|--------------------------------------------------|

    E                       F#
e|--------------7-----------------9-----9-----------|
B|-----9--9--9-----9-----------11----11----11-------|
G|--9-----------------9/11--11----------------11/13-|
D|--------------------------------------------------|
A|--------------------------------------------------|
E|--------------------------------------------------|

    G#m                     F#
e|--------11----11----------------------------------|
B|-----12----12----12----------11-11-11-11-11-------|
G|--13----------------13\11-11----------------11\9--|
D|--------------------------------------------------|
A|--------------------------------------------------|
E|--------------------------------------------------|

    E                       F#
e|--------------7-----------9-----------------------|
B|-----9--9--9-----9--------11----------------------|
G|--9-----------------9/11--11----------------------|
D|--------------------------------------------------|
A|--------------------------------------------------|
E|--------------------------------------------------|

   B               D#m               B               D#m
   Uh oh, uh oh!                     Uh oh, uh oh!
e|---------------------------------|---------------------------------|
B|---------------------------------|---------------------------------|
G|---------------------------------|---------------------------------|
D|-----------------8p7-8p7-8---4---|-----------------8p7-8p7-8~~~----|
A|---------------------------------|---------------------------------|
E|---------------------------------|---------------------------------|

   B               D#m               E              F#
   Uh oh, uh oh!
e|---------------------------------|---------------------------------|
B|---------------------------------|---------------------------------|
G|---------------------------------|-----------9---6-----------------|
D|-----------------8p7-8p7-8---4---|-6-------------------------------|
A|---------------------------------|---7---7-------------------------|
E|---------------------------------|---------------------------------|

[Verse 1]
B                        D#m
  You and me we’ve got a bad reputation.
B                           D#m
  You see we never keep our hands to ourselves.
B                             D#m                E               F#
  It seems to be we’re guilty of accusations for public show and tell.
Oh well that’s fine.
B                        D#m
  Maybe we just lose control of our senses.
B                        D#m D#m  D#m D#m
  Or maybe we tend to forget where we are.
B                         D#m                     E                   F#
  Maybe you just love the public’s attention them watching you from a far.

[Pre-Chorus]
   G#m             F#            E
So,   one more and I’ll be on my way.
           F#      G#m
One more X-rated PDA.
            F#            E
One more so I can finally say
                F#
‘You’re my favorite mistake’.

[Chorus]
B      D#m
Uh Oh! Anyway you want to.
B      D#m
Uh Oh! Baby read my mind.
B      D#m                              E             F#
Uh Oh! Maybe you could stay so we could Uh Oh all the time.
B      D#m
Uh Oh! Anyway you want to.
B      D#m
Uh Oh! Baby read my mind.
B      D#m                              E             F#
Uh Oh! Maybe you could stay so we could Uh Oh all the time.

[Verse 2]
B                       D#m
  No one ever said this love should be private,
B                                D#m  D#m D#m D#m
  and no you shouldn’t keep your hands to yourself.
B                           D#m                      E                  F#
  Let them stare at you and if you don’t like it you make it so hard to tell.

[Pre-Chorus]
   G#m             F#            E
So,   one more and I’ll be on my way.
           F#      G#m
One more X-rated PDA.
            F#            E
One more so I can finally say
                F#
‘You’re my favorite mistake’.

[Chorus]
B      D#m
Uh Oh! Anyway you want to.
B      D#m
Uh Oh! Baby read my mind.
B      D#m                              E             F#
Uh Oh! Maybe you could stay so we could Uh Oh all the time.
B      D#m
Uh Oh! Anyway you want to.
B      D#m
Uh Oh! Baby read my mind.
B      D#m                              E             F#
Uh Oh! Maybe you could stay so we could Uh Oh all the time.

[Bridge]
B
Uh Oh! Anyway you want to.
B
Uh Oh! Baby read my mind.
B                                       E             F#
Uh Oh! Maybe you could stay so we could Uh Oh all the time.

[Outro]
   G#m             F#            E
So,   one more and I’ll be on my way.
           F#      G#m
One more X-rated PDA.
            F#            E
One more so I can finally say
                F#
‘You’re my favorite mistake’.

            
            
Suggest correction
Creating personal tab
Creating personal tab
You can edit any tab online and save it as your Personal.

You can edit, replace or remove any tab part or add personal notes – all changes will be seen only by you.

Personal tabs can be accessed anytime from any device, even offline.
Learn more »
Give kudos to tab author, rate the tab!
1 2 3 4 5
comments
print report bad tab
guest
You may want to rate the tab now too:
select rating
Wanna post a correction for this tab? Suggest correction