Oops, an error
Loading. Please wait.

Tum Saath Ho Tamasha Tab

10 views 1 this week
no commentswrite comment
1 2 3 4 5
3 more votes to show rating
add to favorites
launch autoscroll
font size
0
reset
how to read this tab
guitar tuner
Autoscroll
slow
fast
+/-
esc
set tempo
stop
Help us to improve Ultimate-Guitar.com Take our survey!
×
Author
[Intro]

e|--3---4---3---4---3-|
B|--------6------6----|
G|--------------------|
D|--------------------|
A|--------------------|
E|--------------------|
Tum Saath Ho, Ya Na Ho

e|--6--4--3-----|
B|-----------6--|
G|--------------|
D|--------------|
A|--------------|
E|--------------|
Kya Harz He

e|--3---4---3---4---3-|
B|--------6------6----|
G|--------------------|
D|--------------------|
A|--------------------|
E|--------------------|
Be Dard Thi, Zindgi..

e|--6--4--3-----|
B|-----------6--|
G|--------------|
D|--------------|
A|--------------|
E|--------------|
Be Dard He...

e|-------4---4-3--|
B|--4-6---------6-|
G|----------------|
D|----------------|
A|----------------|
E|----------------|(x2)
Agar Tum, Saath Ho 

e|-------------------------------|
B|--4--6-6-6-6---4-3--4--6-6-6-6-|
G|-------------------------------|
D|-------------------------------|
A|-------------------------------|
E|-------------------------------|
Teri Nazro Me He, Tere Sapne

e|------4-4-4--6-----3-3-3-----|
B|--4-6---------------------6--|
G|-----------------------------|
D|-----------------------------|
A|-----------------------------|
E|-----------------------------|
Tere Sapno Me, Narazi

e|---------------------------------|
B|--4--6-6-6-6---4-3--4--6-6-6-6---|
G|---------------------------------|
D|---------------------------------|
A|---------------------------------|
E|---------------------------------|
Muje Lagta He Ki, Batey Dil Ki

e|------4-4-4--3-------3-4-3------|
B|--4-6-------------6--------4----|
G|--------------------------------|
D|--------------------------------|
A|--------------------------------|
E|--------------------------------|
Hoti Lafzo Ki, Dhoke Bazi
Suggest correction
Give kudos to tab author, rate the tab!
1 2 3 4 5
comments
print report bad tab
guest
You may want to rate the tab now too:
select rating
Wanna post a correction for this tab? Suggest correction