Oops, an error
Loading. Please wait.

At And T tab

106 views 1 this week
no commentswrite comment
1 2 3 4 5
2 more votes to show rating
add to favorites
×
Save as Personal and add changes to this tab that will be seen only by you. Learn more ›
×
You can save this tab as Personal to edit and correct it or add notes. All changes will be seen only by you. Learn more »
launch autoscroll
font size
0
reset
how to read this tab
guitar tuner
edit
Autoscroll
slow
fast
+/-
esc
set tempo
stop
Drop D tuning


[Verse 1]

   D/F#                            Bm                             G                             D 
e|-------------------------------|------------------------------|-----------------------------|--------------|
B|-------------------------------|------------------------------|-----------------------------|--------------|
G|-------------------------------|------------------------------|-----------------------------|--------------|
D|-------------------------------|------------------------------|-9------------------9--9-9-9-|-7-5-4--5-4---|
A|-12--9---9-9--9--9--12--9-12-9-|-14--9--9-9-9--9---12--9-12-9-|-5--9--9-9--9--9-9--5--5-5-5-|-5-5-5--5-5-5-|
D|--0--0---0-0--0--0---0--0--0-0-|-12--9--9-9-9--9----9--9--9-9-|-5--5--5-5--5--5-5--5--------|-0-0-0--0-0-0-|

D/F#                     Bm                           G                               D
Maybe someone's going to save me, my heart is made of gravy, and the laps I swim from lunatics don't count

                 Bm/D                         A                         G                D
e|----------------------------|-------------------------------|------------------------|---------------------|
B|----------------------------|-------------------------------|------------------------|---------------------|
G|----------------------------|-------------------------------|------------------------|---------------------|
D|---------------0--0-0--0--0-|------------------7--7-9--7--7-|-9--7-9-----------------|-4--4--4-4-4--4--4-4-|
A|--7--9-7-9--7--2--2-2--2--2-|--7--9-7-9--7--7--7--7-7--7--7-|-7--7-7--5--5--5-5-5--5-|-5--5--5-5-5--5--5-5-|
D|--0--0-0-0--0--0--0-0--0--0-|--0--0-0-0—-0--7--7--7-7--7--7-|-7--7-7--5--5--5-5-5--5-|-0--0--0-0-0--0--0-0-|

             Bm/D                        A                                          G                   D
Open up your stockings, pull out all the things you never wanted, from room service calls, room service calls


[Verse 2]

   D/F#                            Bm                             G                             D 
e|-------------------------------|------------------------------|-----------------------------|--------------|
B|-------------------------------|------------------------------|-----------------------------|--------------|
G|-------------------------------|------------------------------|-----------------------------|--------------|
D|-------------------------------|------------------------------|-9------------------9--9-9-9-|-7-5-4--5-4---|
A|-12--9---9-9--9--9--12--9-12-9-|-14--9--9-9-9--9---12--9-12-9-|-5--9--9-9--9--9-9--5--5-5-5-|-5-5-5--5-5-5-|
D|--0--0---0-0--0--0---0--0--0-0-|-12--9--9-9-9--9----9--9--9-9-|-5--5--5-5--5--5-5--5--------|-0-0-0--0-0-0-|

D/F#                                  Bm                                        G
Open up your hands and let me see the things you keep in there, I don't want to split up fifty-fifty
                  D
That's the way we do it in this rose town

                 Bm/D                         A                         G                D
e|----------------------------|-------------------------------|------------------------|---------------------|
B|----------------------------|-------------------------------|------------------------|---------------------|
G|----------------------------|-------------------------------|------------------------|---------------------|
D|---------------0--0-0--0--0-|------------------7--7-9--7--7-|-9--7-9-----------------|-4--4--4-4-4--4--4-4-|
A|--7--9-7-9--7--2--2-2--2--2-|--7--9-7-9--7--7--7--7-7--7--7-|-7--7-7--5--5--5-5-5--5-|-5--5--5-5-5--5--5-5-|
D|--0--0-0-0--0--0--0-0--0--0-|--0--0-0-0—-0--7--7--7-7--7--7-|-7--7-7--5--5--5-5-5--5-|-0--0--0-0-0--0--0-0-|

                 Bm/D                                  A                      
I've got all the glory in the world, I hope it doesn't floor you before you go
             G                  D
Room service calls in the random falls, go!


[Chorus 1]

      D    A    G    D
e|------------------------|
B|------------------------|
G|------------------------|
D|----0----7----5----0----| x2
A|----0----7----5----0----|
D|----0----7----5----0----|

    D
Whenever, whenever, whenever, whenever
    A                                    G
Whenever, whenev-ev-ev-ev-ev-ever I feel fine
                      D      
I'm going to walk away from all this, all that
    D
The groovy groovy kitty, you little little pity
          A
With your slip shag watching back
                   G                                        D
You skinny, skinny people don't like that when you con them, spell me


[Verse 3]

   D/F#                            Bm                             G                             D 
e|-------------------------------|------------------------------|-----------------------------|--------------|
B|-------------------------------|------------------------------|-----------------------------|--------------|
G|-------------------------------|------------------------------|-----------------------------|--------------|
D|-------------------------------|------------------------------|-9------------------9--9-9-9-|-7-5-4--5-4---|
A|-12--9---9-9--9--9--12--9-12-9-|-14--9--9-9-9--9---12--9-12-9-|-5--9--9-9--9--9-9--5--5-5-5-|-5-5-5--5-5-5-|
D|--0--0---0-0--0--0---0--0--0-0-|-12--9--9-9-9--9----9--9--9-9-|-5--5--5-5--5--5-5--5--------|-0-0-0--0-0-0-|

D/F#                        Bm               G                   D
Spritzer on ice in New York City, isn't it a pity, you never had anything to mix with that

                 Bm/D                         A                         G                D
e|----------------------------|-------------------------------|------------------------|---------------------|
B|----------------------------|-------------------------------|------------------------|---------------------|
G|----------------------------|-------------------------------|------------------------|---------------------|
D|---------------0--0-0--0--0-|------------------7--7-9--7--7-|-9--7-9-----------------|-4--4--4-4-4--4--4-4-|
A|--7--9-7-9--7--2--2-2--2--2-|--7--9-7-9--7--7--7--7-7--7--7-|-7--7-7--5--5--5-5-5--5-|-5--5--5-5-5--5--5-5-|
D|--0--0-0-0--0--0--0-0--0--0-|--0--0-0-0—-0--7--7--7-7--7--7-|-7--7-7--5--5--5-5-5--5-|-0--0--0-0-0--0--0-0-|

              Bm/D                    A
Listen to the tender, behind the open chest in the hall
             G                   D
Room service calls, I'm blue and green and cream and blue


[Chorus 2]

      D    A    G    D
e|------------------------|
B|------------------------|
G|------------------------|
D|----0----7----5----0----| x2
A|----0----7----5----0----|
D|----0----7----5----0----|
    
    D  
Whenever, whenever, whenever
                 A                        G
When-nen-nen-nen-en-en-en-ever, oh I feel fine
                D
I'll walk the plank for you
                                   D
I'll walk the plank, I'll walk the plank for you
                               A
In the da-da-da-da-dark of the capi-federal
         G                                                    D                                       
Jacob, Jacob Javits, I'd like to thank you for everything, primarily your glass house


[Outro]
 
     E5     F5     G5    D/F#   
e|------------------------------|
B|------------------------------|
G|----9-----11-----12-----11----|
D|----9-----11-----12-----12----|
A|----7------9-----10------9----|
D|------------------------------|

E5
Guess, Levis, Guess, Levis
F5
Guess, Levis, Guess, Levis
G5
Guess, Levis, Guess, Levis
D/F#
Guess, Levis, Guess, Levis, one, two, three, go!

      D    A    G    D
e|------------------------|
B|------------------------|
G|------------------------|
D|----0----7----5----0----| 
A|----0----7----5----0----|
D|----0----7----5----0----|

D                   A                   G                   D
Whoahhh-ha ohh-ohh, whoahhh-ha ohh-ohh, whoahhh-ha ohh-ohh, whoahhh-ha ohh-ohh


            
            
Suggest correction
Creating personal tab
Creating personal tab
You can edit any tab online and save it as your Personal.

You can edit, replace or remove any tab part or add personal notes – all changes will be seen only by you.

Personal tabs can be accessed anytime from any device, even offline.
Learn more »
Give kudos to tab author, rate the tab!
1 2 3 4 5
comments
print report bad tab
guest
You may want to rate the tab now too:
select rating
Wanna post a correction for this tab? Suggest correction