Oops, an error
Loading. Please wait.

Grounded tab

27,356 views 42 this week
no commentswrite comment
1 2 3 4 5
x 9
add to favorites
×
Save as Personal and add changes to this tab that will be seen only by you. Learn more ›
×
You can save this tab as Personal to edit and correct it or add notes. All changes will be seen only by you. Learn more »
launch autoscroll
font size
0
reset
how to read this tab
guitar tuner
edit
Autoscroll
slow
fast
+/-
esc
set tempo
stop
Author
Unregistered
[Intro] (x2)
e|---------------------------------------------------------------------------|
B|----12----12----12----12----12----12----12----12----12----12----12----12---|
A|-14----14----14----14----14----14----14----12----14----14----14----12------|
D|---------------------------------------------------------------------------|
A|---------------------------------------------------------------------------|
D|---------------------------------------------------------------------------|

e|---------------------------------------------------------------------------|
B|----12----12----12----12----12----12----12----12----12----12----12----12---|
A|-11----11----11----12----11----11----11----11----11----11----11----12------|
D|---------------------------------------------------------------------------|
A|---------------------------------------------------------------------------|
D|---------------------------------------------------------------------------|

e|---------------------------------------------------------------------------|
B|----12----12----12----12----12----12----12----12---------------------------|
A|-14----14----14----12----11----11----11----12------------------------------|
D|---------------------------------------------------------------------------|
A|---------------------------------------------------------------------------|
D|---------------------------------------------------------------------------|

[Verse] (x4)
e|---------------------------------------------------------------------------|
B|---------------------------------------------------------------------------|
G|---------------------------------------------------------------------------|
D|-----6---7---6---6---------------------------------------------------------|
A|-0-0---0---0---0-----7---4---7---------------------------------------------|
D|-0-----------------7---7---7---7-------------------------------------------|

[Chorus/Build up] (x2)
e|-----------------------------------------------------------------------------|
B|------------------------------------------------10b12-----10b12--------------|
A|-7-7-7-7-7-7-7-7-------------------------------------------------------------|
D|-----------------11-11-11-11-9-9-9-9-----------------------------------------|
A|-----------------------------------------------------------------------------|
D|-----------------------------------------------------------------------------|

[Rock] (x4)
(gradually make the bend stronger until you get to 4) (bend gradually bend up until it is 
full note bend)
e|---------------------------------------------------------------------------|
B|---------------------------------------------------------------------------|
A|---2b-2b-2b-2b-2b-2b-2b-2b-2b4b2-0-----------------------------------------|
D|-0---------------------------------2--2-2-2--------------------------------|
A|-0---------------------------------2--2-2-2--------------------------------|
D|-0---------------------------------2--2-2-2--------------------------------|

[Verse] (x4)
e|---------------------------------------------------------------------------|
B|---------------------------------------------------------------------------|
G|---------------------------------------------------------------------------|
D|-----6---7---6---6---------------------------------------------------------|
A|-0-0---0---0---0-----7---4---7---------------------------------------------|
D|-0-----------------7---7---7---7-------------------------------------------|

[Second Verse for a second guitar] (x4)
e|---------------------------------------------------------------------------|
B|---------------------------------------------------------------------------|
A|---------------------------------------------------------------------------|
D|---------------------------------------------------------------------------|
A|---------------------------4-7-9-7-----------------------------------------|
D|---------------------------------------------------------------------------|

[Chorus/Build up] (x2)
e|---------------------------------------------------------------------------|
B|------------------------------------------------10b12-----10b12------------|
A|-7-7-7-7-7-7-7-7-----------------------------------------------------------|
D|-----------------11-11-11-11-9-9-9-9---------------------------------------|
A|---------------------------------------------------------------------------|
D|---------------------------------------------------------------------------|

[Rock Out]
(second time around)
e|---------------------------------------------------------------------------|
B|---------------------------------------------------------------------------|
A|---2b-2b-2b-2b-2b-2b-2b-2b-2b4b2-0-----------------------------------------|
D|-0---------------------------------2--2------------------------------------|
A|-0---------------------------------2--2------------------------------------|
D|-0---------------------------------2--2-11\--------------------------------|

e|---------------------------------------------------------------------------|
B|---------------------------------------------------------------------------|
A|---2b-2b-2b-2b-2b-2b-2b-2b-2b4b2-0-----------------------------------------|
D|-0---------------------------------2--2------------------------------------|
A|-0---------------------------------2--2------------------------------------|
D|-0---------------------------------2--2-9\---------------------------------|

e|---------------------------------------------------------------------------|
B|---------------------------------------------------------------------------|
A|---2b-2b-2b-2b-2b-2b-2b-2b-2b4b2-0-----------------------------------------|
D|-0---------------------------------2--2------------------------------------|
A|-0---------------------------------2--2------------------------------------|
D|-0---------------------------------2--2-11\--------------------------------|

e|---------------------------------------------------------------------------|
B|---------------------------------------------------------------------------|
A|---2b-2b-2b-2b-2b-2b-2b-2b-2b4b2-0-----------------------------------------|
D|-0---------------------------------2--2-2-2--------------------------------|
A|-0---------------------------------2--2-2-2--------------------------------|
D|-0---------------------------------2--2-2-2--------------------------------|

[Break] (x2)
e|---------------------------------------------------------------------------|
B|----12----12----12----12----12----12----12----12----12----12----12----12---|
A|-14----14----14----14----14----14----14----14----14----14----14----14------|
D|---------------------------------------------------------------------------|
A|---------------------------------------------------------------------------|
D|---------------------------------------------------------------------------|

e|---------------------------------------------------------------------------|
B|----12----12----12----12----12----12----12----12----12----12----12----12---|
A|-14----14----14----14----14----14----14----14----14----14----14----14------|
D|---------------------------------------------------------------------------|
A|---------------------------------------------------------------------------|
D|---------------------------------------------------------------------------|

e|---------------------------------------------------------------------------|
B|----12----12----12----12----12----12----12----12---------------------------|
A|-14----14----14----14----14----14----14----14------------------------------|
D|---------------------------------------------------------------------------|
A|---------------------------------------------------------------------------|
D|---------------------------------------------------------------------------|

[Outro](x2)
e|---------------------------------------------------------------------------|
B|----12----12----12----12----12----12----12----12----12----12----12----12---|
A|-14----14----14----14----14----14----14----12----14----14----14----12------|
D|---------------------------------------------------------------------------|
A|---------------------------------------------------------------------------|
D|---------------------------------------------------------------------------|

e|---------------------------------------------------------------------------|
B|----12----12----12----12----12----12----12----12----12----12----12----12---|
A|-11----11----11----12----11----11----11----11----11----11----11----12------|
D|---------------------------------------------------------------------------|
A|---------------------------------------------------------------------------|
D|---------------------------------------------------------------------------|

e|---------------------------------------------------------------------------|
B|----12----12----12----12----12----12----12----12---------------------------|
A|-14----14----14----12----11----11----11----12------------------------------|
D|---------------------------------------------------------------------------|
A|---------------------------------------------------------------------------|
D|---------------------------------------------------------------------------|


************************************

| b  Bend
| \  Slide down

************************************

            
            
Suggest correction
Creating personal tab
Creating personal tab
You can edit any tab online and save it as your Personal.

You can edit, replace or remove any tab part or add personal notes – all changes will be seen only by you.

Personal tabs can be accessed anytime from any device, even offline.
Learn more »
comments
print report bad tab
guest
Wanna post a correction for this tab? Suggest correction