Oops, an error
Loading. Please wait.

Rattled By The Rush tab

version 2
version 2

Whole song

  • Tuning is corrected, formatting is updated to be e... Show more
544 views 9 this week
no commentswrite comment
1 2 3 4 5
1 last vote to show rating
add to favorites
×
Save as Personal and add changes to this tab that will be seen only by you. Learn more ›
×
You can save this tab as Personal to edit and correct it or add notes. All changes will be seen only by you. Learn more »
launch autoscroll
font size
0
reset
how to read this tab
guitar tuner
edit
Autoscroll
slow
fast
+/-
esc
set tempo
stop
Author
Difficulty
About this tab version
Tuning is corrected, formatting is updated to be easier to follow and read and fit the song more closely, missing parts are added. Was this info helpful? Yes No
The lead single off Pavement's third LP Wowee Zowee. The other tab for this song had a 
lot of good stuff but
was in the wrong tuning and had poor formatting so I hope I can fix some of that. The 
song appears to be in
Malkmus's classic EBADAD tuning.


[INTRO]

E|-----------------|
B|-----------------|
G|-----------------|
D|-----------------|
A|-4-0-4-5-7-------|
D|-----------------|

 Oh, that I      could        bend my tongue outwards
E|--------------------------------------------------|
B|-4--2--4-------4---------------4--2--4----4--2----|
G|-2--2--2-------2---------------0--0--0----0--0----|
D|-4--4--4-------4---------------4--4--4----4--4----|
A|-2--2--2-------2---------------0--0--0----0--0----|
D|--------------------------------------------------|

 Leave your lungs hurting    Tuckin my    shirt in
E|------------------------------------------2--0----|
B|---4--2--4-------4-2-------2--3--2--------0--0----|
G|---0--0--0-------0-0-------0--0--0--------0--0----|
D|---4--4--4-------4-4-------0--0--0--------2--2----|
A|---0--0--0-------0-0----------------------0--0----|
D|--------------------------------------------------|

 Pants I wear so well        Cross your t's shirt Smells
E|--------------------------------------------------|
B|-4--2--4-------4---------------4--2--4----4--2----|
G|-2--2--2-------2---------------0--0--0----0--0----|
D|-4--4--4-------4---------------4--4--4----4--4----|
A|-2--2--2-------2---------------0--0--0----0--0----|
D|--------------------------------------------------|

 Worse than your   lyin'     Caught my dad cryin'
E|------------------------------------------2--0----|
B|---4--2--4-------4-2-------2--3--2--------0--0----|
G|---0--0--0-------0-0-------0--0--0--------0--0----|
D|---4--4--4-------4-4-------0--0--0--------2--0----|
A|---0--0--0-------0-0----------------------0--0----|
D|--------------------------------------------------|

   Loose like the wind         From the rough we get par
 Guitar 1
E|--------------------------------------------------|
B|-4--2--4-------4---------------4--2--4----4--2----|
G|-2--2--2-------2---------------0--0--0----0--0----|
D|-4--4--4-------4---------------4--4--4----4--4----|
A|-2--2--2-------2---------------0--0--0----0--0----|
D|--------------------------------------------------|

  Guitar 2
E|--------------------------------------------------|
B|--------------------------------------------------|
G|--------------------------------------------------|
D|-9------------------------------------------------|
A|-9------------------------------------------------|
D|-7------------------------------------------------|


     Sleet city woman        Waiting to spar
 Guitar 1
E|------------------------------------------2--0----|
B|---4--2--4-------4-2-------2--3--2--------0--0----|
G|---0--0--0-------0-0-------0--0--0--------0--0----|
D|---4--4--4-------4-4-------0--0--0--------2--0----|
A|---0--0--0-------0-0----------------------0--0----|
D|--------------------------------------------------|

  Guitar 2
E|--------------------------------------------------|
B|--------------------------------------------------|
G|--------------------------------------------------|
D|--------------------------------------------------|
A|---------------------------0--2--0---2----5----7--|
D|--------------------------------------------------|

 I'm Drowning for your thirst    Drowning for your thirst
E|--------------------------------------------------|
B|-4--2--4-------4---------------4--2--4----4--2----|
G|-2--2--2-------2---------------0--0--0----0--0----|
D|-4--4--4-------4---------------4--4--4----4--4----|
A|-2--2--2-------2---------------0--0--0----0--0----|
D|--------------------------------------------------|

E|--------------------------------------------------|
B|--------------------------------------------------|
G|--------------------------------------------------|
D|-9-----------------------------7------------------|
A|-9-----------------------------7------------------|
D|-7-----------------------------5------------------|

 Drowning for your thirst    Drowning for your thirst
E|------------------------------------------2--0----|
B|---4--2--4-------4-2-------2--3--2--------0--0----|
G|---0--0--0-------0-0-------0--0--0--------0--0----|
D|---4--4--4-------4-4-------0--0--0--------2--0----|
A|---0--0--0-------0-0----------------------0--0----|
D|--------------------------------------------------|

E|--------------------------------------------------|
B|--------------------------------------------------|
G|--------------------------------------------------|
D|---7-----------------------2----------------------|
A|---7-----------------------2----------------------|
D|---5-----------------------0----------------------|

Breakdown

 Guitar 1
E|--------------------------------------------------|
B|--------------------------------------------------|
G|--------------------------------------------------|
D|---12--\--9-9--------------11--\--7-7-------------|
A|---12--\--9-9--------------11--\--7-7-------------|
D|---12--\--9-9--------------11--\--7-7-------------|

  Guitar 2
E|--------------------------------------------------|
B|--------9b-7h9p7----------------------------------|
G|--------------------------------------------------|
D|-----------------------9--------------------------|
A|--------------------------------------------------|
D|--------------------------------------------------|


  Guitar 1
E|--------------------------------------------------|
B|--------------------------------------------------|
G|--------------------------------------------------|
D|---2--/--9-9---------------11--\--7-7-------------|
A|---2--/--9-9---------------11--\--7-7-------------|
D|---2--/--9-9---------------11--\--7-7-------------|

  Guitar 2
E|------------14------------------------------------|
B|--------------------------------------------------|
G|-----------------13----14-----13-----14---13------|
D|--------------------------------------------------|
A|--------------------------------------------------|
D|--------------------------------------------------|


 Guitar 1
E|--------------------------------------------------|
B|--------------------------------------------------|
G|--------------------------------------------------|
D|---12--\--9-9--------------11--\--7-7-------------|
A|---12--\--9-9--------------11--\--7-7-------------|
D|---12--\--9-9--------------11--\--7-7-------------|

  Guitar 2
E|--------9-----------9--------------9--------------|
B|---12b---------12b-----------12b------------------|
G|--------------------------------------------------|
D|--------------------------------------------------|
A|--------------------------------------------------|
D|--------------------------------------------------|


  Guitar 1
E|--------------------------------------------------|
B|--------------------------------------------------|
G|--------------------------------------------------|
D|---2--/--9-9---------------11--\--7-7----5----2---|
A|---2--/--9-9---------------11--\--7-7----5----2---|
D|---2--/--9-9---------------11--\--7-7----5----2---|

  Guitar 2
E|-------------------12b14--------------------------|
B|--------------------------------------------------|
G|---9-9--8-----------------------------------------|
D|--------------------------------------------------|
A|--------------------------------------------------|
D|--------------------------------------------------|

Repeat everything for the second verse and chorus and pretty much through the rest of 
the outro.

During the outro Guitar 2 plays a little solo over the verse riff that goes something 
like this

E|----------11---------------------11-------------------|
B|----14b16----14b16--12----14b16------14b16---10-------|
G|------------------------------------------------------|
D|------------------------------------------------------|
A|------------------------------------------------------|
D|------------------------------------------------------|

E|----------11---------------------11-----------16--11--|
B|----14b16----14b16--10----14b16------14b16-12---------|
G|------------------------------------------------------|
D|------------------------------------------------------|
A|------------------------------------------------------|
D|------------------------------------------------------|

E|----------11---------------------11-------------------|
B|----14b16----14b16--12----14b16------14b16---10-------|
G|------------------------------------------------------|
D|------------------------------------------------------|
A|------------------------------------------------------|
D|------------------------------------------------------|

E|----------11---------------------11-----------16--11--|
B|----14b16----14b16--10----14b16------14b16-12---------|
G|------------------------------------------------------|
D|------------------------------------------------------|
A|------------------------------------------------------|
D|------------------------------------------------------|

E|---16b18-16b18-16--11--16--11----11-----11------------|
B|------------------------------16----16b----16b--12-12-|
G|------------------------------------------------------|
D|------------------------------------------------------|
A|------------------------------------------------------|
D|------------------------------------------------------|

E|-------11-----11--------------------11-----11---------|
B|---16b----16b----16b--12-12-----16b----16b----10------|
G|------------------------------------------------------|
D|------------------------------------------------------|
A|------------------------------------------------------|
D|------------------------------------------------------|

Pretty much there's lots of bendy guitar noise in the middle but that's the general song structure.



************************************

| h  Hammer-on
| p  Pull-off
| b  Bend
| /  Slide up
| \  Slide down

************************************

            
            
Suggest correction
Creating personal tab
Creating personal tab
You can edit any tab online and save it as your Personal.

You can edit, replace or remove any tab part or add personal notes – all changes will be seen only by you.

Personal tabs can be accessed anytime from any device, even offline.
Learn more »
Give kudos to tab author, rate the tab!
1 2 3 4 5
comments
print report bad tab
guest
You may want to rate the tab now too:
select rating
Wanna post a correction for this tab? Suggest correction